Song name
# A B C D E F G H I J K L M N O P Q R S T U V W X Y Z

Social Distortion - Diamond In The Rough tab

This is bits and pieces of this song, I didn't take the time to figure it all out 
but it's sort of an outline.

Tuned half step down to Eb

No strumming pattern

eb|---------------------6--------------------------------------------------.|
Bb|------------------------7-----------------------------------------------.|
Gb|--9-----------------------6-4~---6b--4----4--4h6-6~----6b--4---4~-------.|
Db|--9--9---4---9---------------------------6--------------------6---------.|
Ab|--7--9---4---9----------------------------------------------------------.|
Eb|-----7---2---7----------------------------------------------------------.|

Theres more of the intro but I haven't figure it out yet.

e|---------------------------------------------------------------------.|
B|---------------------------------------------------------------------.|
G|--4---------4--------------------------------------------------------.|
D|--2--4---2--2--------------------------------------------------------.|
A|--2--2---2--2--------------------------------------------------------.|
E|-----2---0-----------------------------------------------------------.|



Repeat through pretty much the whole thing I think.
Tap to rate this tab
 
# A B C D E F G H I J K L M N O P Q R S T U V W X Y Z