Song name
# A B C D E F G H I J K L M N O P Q R S T U V W X Y Z

Social Distortion - Ring Of Fire tab

Artisit: Social Distortion
Song: Ring of Fire
Tabbed by: Mike Layton (Laytonium@wowway.com)

Intro:

eb|-------------------------------------------------------------------------|
Bb|-------------------------------------------------------------------------|
Gb|--4-4-4-4-4-4-4-4-4-4-4-4-4-4-4-4-4-4-4-4-4-4-4-4-4-4-4-4-4-4-4-4-4-4-4--|
Db|--4-4-4-4-4-4-4-4-4-4-4-4-4-4-4-4-4-4-4-4-4-4-4-4-4-4-4-4-4-4-4-4-4-4-4--|
Ab|--2-2-2-2-2-2-2-2-2-2-2-2-2-2-2-2-2-2-2-2-2-2-2-2-2-2-2-2-2-2-2-2-2-2-2--|
Eb|-------------------------------------------------------------------------|

Cont.
Guitar 1
eb|-------------------------------------------------------------------------|
Bb|-------------------------------------------------------------------------|
Gb|--4-4-4-4-4-4-4-----4-4-4-4-4-4-4-4-4-4-4-4-4-4-4-4-4-4-4-----4-4-4-4-4--|
Db|--4-4-4-4-4-4-4-2-2-4-4-4-4-4-4-4-4-4-4-4-4-4-4-4-4-4-4-4-4-4-4-4-4-4-4--|
Ab|--2-2-2-2-2-2-2-2-2-2-2-2-2-2-2-2-2-2-2-2-2-2-2-2-2-2-2-2-2-2-2-2-2-2-2--|
Eb|----------------0-0---------------------------------------2-2------------|

Guitar 2
eb|-----------------------------------------------------------------------------------|
Bb|-----------------------------------------------------------------------------------|
Gb|----------------1------------------------------------------------------------------|
Db|--4-4-4-4-4-4-4---2--4-4-4-4-4-4-4-4-4-4--1-1-1-1-1-1-1-2-2---1-1-1-1-1-1-1-1-1-1--|
Ab|------------------------------------------------------------4----------------------|
Eb|-----------------------------------------------------------------------------------|

Verse:

eb|-------------------------------------------------------------------------|
Bb|-------------------------------------------------------------------------|
Gb|--4-4-4-4-4-4-4-----4-4-4-4-4-4-4-4-4-4-4-4-4-4-4-4-4-4-4-----4-4-4-4-4--|
Db|--4-4-4-4-4-4-4-2-2-4-4-4-4-4-4-4-4-4-4-4-4-4-4-4-4-4-4-4-4-4-4-4-4-4-4--|
Ab|--2-2-2-2-2-2-2-2-2-2-2-2-2-2-2-2-2-2-2-2-2-2-2-2-2-2-2-2-2-2-2-2-2-2-2--|
Eb|----------------0-0---------------------------------------2-2------------|

Chorus:

eb|---------------------------------------------------|
Bb|---------------------------------------------------|
Gb|--------------------------------------4-4-4-4-4-4--| (x2)
Db|--4-4-4-4-4-4-4-4-4-4-4-4-2-2-2-2-2-2-4-4-4-4-4-4--|
Ab|--4-4-4-4-4-4-4-4-4-4-4-4-2-2-2-2-2-2-2-2-2-2-2-2--|
Eb|--2-2-2-2-2-2-2-2-2-2-2-2-0-0-0-0-0-0--------------|

Cont.
eb|-------------------------------------------------------------------|
Bb|-------------------------------------------------------------------|
Gb|--4-4-4-4-4-4-4-4-4-4-4-4-4-4-----4-4-4-4-4-4-4-----4-4-4-4-4-4-4--|
Db|--4-4-4-4-4-4-4-4-4-4-4-4-4-4-2-2-4-4-4-4-4-4-4-4-4-4-4-4-4-4-4-4--|
Ab|--2-2-2-2-2-2-2-2-2-2-2-2-2-2-2-2-2-2-2-2-2-2-2-4-4-2-2-2-2-2-2-2--|
Eb|------------------------------0-0---------------2-2----------------|

(Verse 2)
(Chorus)
(Intro)
(Chorus)
(Verse 3)
(Chorus)
(Chorus)
(Outro is similar to the end of the chorus and the beginning of the intro just listen to 
the timing)
Tap to rate this tab
 
# A B C D E F G H I J K L M N O P Q R S T U V W X Y Z