Song name
# A B C D E F G H I J K L M N O P Q R S T U V W X Y Z

Social Distortion - Pretty In Pink tab

Artisit: Social Distortion
Song: Pretty in Pink 
Tabbed by: Mike Layton (Laytonium@wowway.com)

Intro:

eb|---------------------------------------|
Bb|---------------------------------------|
Gb|--8-8-8-8-8--5-3-----------------------|
Db|--8-8-8-8-8--5-3--6-6-6-6-6-8-8-8-8-8--|
Ab|--6-6-6-6-6--3-1--6-6-6-6-6-8-8-8-8-8--|
Eb|------------------4-4-4-4-4-6-6-6-6-6--|

Verse:

eb|-------------------------------------------|
Bb|-------------------------------------------|
Gb|--8-8-8-8-8-6-6-6-6-6----------------------|
Db|--8-8-8-8-8-6-6-6-6-6-3-3-5-5-6-6-8-8-8-8--|
Ab|--6-6-6-6-6-4-4-4-4-4-3-3-5-5-6-6-8-8-8-8--|
Eb|----------------------1-1-3-3-4-4-6-6-6-6--|
(alternate palm mute and open, listen to the song and you will get the rhythm)

Chorus:

eb|------------------|
Bb|------------------|
Gb|------------------|
Db|--3~--5~--6~--5~--|
Ab|--3~--5~--6~--5~--|
Eb|--1~--3~--4~--3~--|

(Verse 2)
(Chorus)
(Intro)
(Verse 3)
(Chorus)
(Intro)
Tap to rate this tab
 
# A B C D E F G H I J K L M N O P Q R S T U V W X Y Z