Song name
# A B C D E F G H I J K L M N O P Q R S T U V W X Y Z

Social Distortion - The Creeps tab

Social Distortion
The Creeps
Mommys little monster.

This is the correct way to play the song.
Not the exact strumming, listen to the song for more accuracy.
Did not have the guts to tab the solo. ;)

Intro
Guitar 1

E |---------------------------------|
B |---------------------------------|
G |-4-4-4-4/7-----------------------|
D |-4-4-4-4/7-----------------------|
A |-2-2-2-2/5-----------------------|
E |---------------------------------|

"Riff".
Guitar 2

E |---------------------------------|
B |---------------------------------|
G |-4-4-/7-7-/11-11--9--7-6-4-------|
D |-4-4-/7-7-/11-11--9--7-6-4-------|
A |-2-2-/5-5-/9--9---7--5-4-2-------|
E |---------------------------------|

Verse

E |---------------------------------|
B |---------------------------------|
G |--4-4-/7-------------------------|
D |--4-4-/7-------------------------|
A |--2-2-/5-------------------------|
E |---------------------------------|

Pre chorus

E |---------------------------------|
B |---------------------------------|
G |---------------------------------|
D |--5-5-5-5------------------------|
A |--5-5-5-5------------------------|
E |--3-3-3-3------------------------|
           "I just wanna give you..."

Chorus

E |---------------------------------|
B |---------------------------------|
G |---------------------------------|
D |--4-4-4---/7-/9------------------|
A |--4-4-4---/7-/9------------------|
E |--2-2-2---/5-/7------------------|
"The creeps..."
Tap to rate this tab
# A B C D E F G H I J K L M N O P Q R S T U V W X Y Z