Song name
# A B C D E F G H I J K L M N O P Q R S T U V W X Y Z

Social Distortion - This Time Darlin tab

#----------------------------------PLEASE NOTE--------------------------------#
#This file is the author's own work and represents their interpretation of the#
#song. You may only use this file for private study, scholarship, or research.#
#-----------------------------------------------------------------------------#
#-- File created with Instab - http://www.pconline.com/~smcarey/instab.html --#
#-----------------------------------------------------------------------------#

Author/Artist: Social Distortion
Title: This time Darlin' solo
Album: somewhere between heaven and hell
Transcribed by: cj7654
----------------55-5/7-5-5----------------------------------------------------|
-7-5-5/7v-7-5--------------5-5/7v---7-7v--7-7v-5v------5v-55v--5-5-5/7v-7-5---|
-7-----------7v------------------------------------7-7------------------------|
------------------------------------------------------------------------------|
------------------------------------------------------------------------------|
------------------------------------------------------------------------------|


-----55-5/7-5-5--------5/7\5-----5----------------------------------7-5-5-7---|
----------------5-5/7v-------5/7---5-7-5--------------------------------------|
-7v--------------------------------------7-----7-7v--7-7-9-9-7-7--------------|
-------------------------------------------7-9--------------------------------|
------------------------------------------------------------------------------|
------------------------------------------------------------------------------|


-5-5------------5/7\5-5/7\5--12-10-12/14-14-14-14-12-10-7-5--5-7-5-5----------|
-----5-5/7-7-7v------------------------------------------------------5-5/7-7--|
------------------------------------------------------------------------------|
------------------------------------------------------------------------------|
------------------------------------------------------------------------------|
------------------------------------------------------------------------------|


---------------5-7-5----------------------------------------------------------|
-5-----5---5/7-------5-7-5----------------------------------------------------|
---7-7---7-----------------7-----7-7-7-7-9-9-7-7------------------------------|
-----------------------------7-9----------------------------------------------|
------------------------------------------------------------------------------|
------------------------------------------------------------------------------|


------------------------------------------------------------------------------|
------------------------------------------------------------------------------|
------------------------------------------------------------------------------|
------------------------------------------------------------------------------|
------------------------------------------------------------------------------|
------------------------------------------------------------------------------|
Tap to rate this tab
 
# A B C D E F G H I J K L M N O P Q R S T U V W X Y Z