Song name
# A B C D E F G H I J K L M N O P Q R S T U V W X Y Z

Social Distortion - Indulgence tab

e|--------------------------------------------------------------------------|
B|--------------------------------------------------------------------------|
G|----------2------------2-------------2---------------2---------------0----|
D|------2------------2------------2--------------2---------------2----------|
A|--0------------0------------0--------------0---------------3--------------|
E|--------------------------------------------------------------------------|

e|--------------------------------------------------------------------------|
B|--------------------------------------------------------------------------|
G|---------0---------------0------------------0-----------0-----------------|
D|-----2--------------2------------------2-----------------------4----------|
A|-3-------------3-----------------3------------------------------------5---|
E|--------------------------------------------------------------------------|

e|-------------------------------------------------------------------------|
B|-------------------------------------------------------------------------|
G|--0-----------------0-----------------------0----------------------------|
D|------4--------------------4-----------------------4---------------------|
A|----------5------------------------5-----------------------5-------------|
E|-------------------------------------------------------------------------|
Tap to rate this tab
# A B C D E F G H I J K L M N O P Q R S T U V W X Y Z