Song name
# A B C D E F G H I J K L M N O P Q R S T U V W X Y Z

Social Distortion - Angels Wings tab

----------------------------------------------------------------
 Social Distortion / Angels Wings / Sex, Love and Rock 'n' Roll
----------------------------------------------------------------

Tabbed by: Darren holowathy
E-mail: darrenthespike@hotmail.com

 This is in standard tuning. You can play along with the cd and it will be in tune.
 This is my first tab ever, but this is pretty striaght forward.

Intro:
e-------------------------------------------|
B-------------------------------------------|
G---------6----8---------6---------8--------|
D----3----6----8----6----6----6----8--------|
A----3----4----6----6----4----6----6--------|
E----1--------------4---------4-------------|

Verse:
e-------------------------------------------|
B-------------------------------------------|
G--------------8----------------------------|
D----6----3----8----------------------------|
A----6----3----6----------------------------|
E----4----1---------------------------------|

Chorus:
e-------------------------------------------|
B-------------------------------------------|
G---------6----8---------6---------8--------|
D----3----6----8----6----6----6----8--------|
A----3----4----6----6----4----6----6--------|
E----1--------------4---------4-------------|

There you have it. I didn't put how many times to strum, but you can figure it out, no 
Enjoy it.
Tap to rate this tab
# A B C D E F G H I J K L M N O P Q R S T U V W X Y Z