Song name
# A B C D E F G H I J K L M N O P Q R S T U V W X Y Z

Social Distortion - Winners And Losers tab

Band: Social Distortion
Song: Winners and Losers

Intro

---------------------------------------------------------------------|
---------------------------------------------------------------------|
-7-7-7-7-7-7-7-7-----------------------------------------------------| x2
-7-7-7-7-7-7-7-7--7-7-7-7-7-7-7-7--2-2-2-2-2-2-2-2--3-3-3-3-3-3-3-3--|
-5-5-5-5-5-5-5-5--7-7-7-7-7-7-7-7--2-2-2-2-2-2-2-2--3-3-3-3-3-3-3-3--|
------------------5-5-5-5-5-5-5-5--0-0-0-0-0-0-0-0--5-5-5-5-5-5-5-5--|

Verse

---------------------------------------------------------------------|
---------------------------------------------------------------------|
-7-7-7-7-7-7-7-7-----------------------------------------------------| x4
-7-7-7-7-7-7-7-7--7-7-7-7-7-7-7-7--2-2-2-2-2-2-2-2--3-3-3-3-3-3-3-3--|
-5-5-5-5-5-5-5-5--7-7-7-7-7-7-7-7--2-2-2-2-2-2-2-2--3-3-3-3-3-3-3-3--|
------------------5-5-5-5-5-5-5-5--0-0-0-0-0-0-0-0--5-5-5-5-5-5-5-5--|

Intro x1

Verse x4

Pre-Chorus

--------------|
--------------|
-7-7-7-7-7-7--| x1
-7-7-7-7-7-7--|
-5-5-5-5-5-5--|
--------------|


Chorus

---------------------------------------------------------------------|
---------------------------------------------------------------------|
-----------------------------------7-7-7-7-7-7-7-7-------------------| x4
-2-2-2-2-2-2-2-2--5-5-5-5-5-5-5-5--7-7-7-7-7-7-7-7--7-7-7-7-7-7-7-7--|
-2-2-2-2-2-2-2-2--5-5-5-5-5-5-5-5--5-5-5-5-5-5-5-5--7-7-7-7-7-7-7-7--|
-0-0-0-0-0-0-0-0--3-3-3-3-3-3-3-3-------------------5-5-5-5-5-5-5-5--|

Intro x4

Verse x4

Pre-Chorus

--------------|
--------------|
-7-7-7-7-7-7--| x1
-7-7-7-7-7-7--|
-5-5-5-5-5-5--|
--------------|

Chorus x4

--------------|
--------------|
-7-7-7-7-7-7--| x1
-7-7-7-7-7-7--|
-5-5-5-5-5-5--|
--------------|

---------------------------------------------------------------------|
---------------------------------------------------------------------|
-----------------------------------7-7-7-7-7-7-7-7-------------------| x2
-2-2-2-2-2-2-2-2--5-5-5-5-5-5-5-5--7-7-7-7-7-7-7-7--7-7-7-7-7-7-7-7--|
-2-2-2-2-2-2-2-2--5-5-5-5-5-5-5-5--5-5-5-5-5-5-5-5--7-7-7-7-7-7-7-7--|
-0-0-0-0-0-0-0-0--3-3-3-3-3-3-3-3-------------------5-5-5-5-5-5-5-5--|

End on Intro x1

I don't think this is VERY accurate but it sounds okay, my first tab since they didn't 
any tabs of this song.
Tap to rate this tab
# A B C D E F G H I J K L M N O P Q R S T U V W X Y Z