Song name
# A B C D E F G H I J K L M N O P Q R S T U V W X Y Z

Social Distortion - Down Here With The Rest Of Us tab

Social Distortion - Down Here (With the Rest of Us)

Tune down a half-step:



Verse/Intro:
eb|--------------------------|
Bb|--------------------------|
Gb|--1-------6---------------|
Db|--2-------7---------------|
Ab|--2-------7---------------|
Eb|--0-------5---------------|
(figure out the timing for strums, it's pretty simple)

Chorus:
eb|--------------------------|
Bb|--------------------------|
Gb|--4---------------1-------|
Db|--4-------7-------2-------|
Ab|--2-------7-------2-------|
Eb|----------5-------0-------|

Solo 1st part:
eb|------------------------------------------------------------------------|
Bb|------------------------------------------------------------------------|
Gb|------------------------------------------------------------------------|
Db|---/6~--2-2----2h4-2h4--4/6--6-6~-------/6~--2-2----2h4-2h4--4/6--6-6~--|
Ab|------------------------------------------------------------------------|
Eb|------------------------------------------------------------------------|
Solo 2nd part:
eb|-----/7-7------5-5--0---------------------------------------------------|
Bb|----------7-7---------5/7-5/7-7\5---------------------------------------|
Gb|------------------------------------------------------------------------|
Db|------------------------------------------------------------------------|
Ab|------------------------------------------------------------------------|
Eb|------------------------------------------------------------------------|

Outro (basically play 2nd part of solo slowly at the end):
eb|-----/7-7------5-5--0---------------------------------------------------|
Bb|----------7-7---------5/7----5/7----7\5-=-------------------------------|
Gb|------------------------------------------------------------------------|
Db|------------------------------------------------------------------------|
Ab|------------------------------------------------------------------------|
Eb|------------------------------------------------------------------------|
Tap to rate this tab
 
# A B C D E F G H I J K L M N O P Q R S T U V W X Y Z