Guitaretab - guitar tabs
Song name
# A B C D E F G H I J K L M N O P Q R S T U V W X Y Z

Social Distortion - Footprints On My Ceiling tab

Social Distortion
Footprints on My Ceiling
Sex Love and Rock n Roll

* - palm mute
H  hammer
P  pull off
R  reverse bend
Hb  hold bend


Intro/verse:
|---------------------------------------------------------------------|
|------2--------2-------6-------6---------4-------4---4--4-4-4---2-2--|
|------3--------3--6-6--6--6-6--6---------5-------5---4--4-4-4---3-3--|
|-4-4--4---4-4--4--6-6--6--6-6--6----6-6--6--6-6--6---4--4-4-4---4-4--|
|-4-4--4---4-4--4--4-4--4--4-4--4----6-6--6--6-6--6---2--2-2-2---4-4--|
|-2-2--2---2-2--2--------------------4-4--4--4-4--4--------------2-2--|
  * *      * *     * *     * *       * *     * *


Break:
|--------------------------------------------------|
|--------------------------------------------------|
|------------------------------6-6p4-----------4---|
|----------------------6^--4-----------6-4-6-------|
|-----------4-----4--------------------------------|
|-2---2-4-6----6-----------------------------------|

Intro/verse X3

How do talk without speaking: (chords)
|--------------------------------|
|--------------------------------|
|-6----------4-------------------|
|-6-----6----4----4--------------|
|-4-----6----2----4--------------|
|-------4---------2--------------|

Intro/verse X2

How do you talk without speaking part again.
[ Tab from: http://www.guitaretab.com/s/social-distortion/62639.html ]
Solo:  it is not complete, play some of the notes a few times more than I wrote.
(play pre-verse) then:
|---------------------------------------7-------------4-4-4-4-4-4-4-4--|
|----------------------------------7^hb----(9)r7-4-7--4-4-4-4-4-4-4-4--|
|-------4^--4h6p46^rp46--6-4-6-4-------------------------------------|
|-4-4-6----------------------------------------------------------------|
|----------------------------------------------------------------------|
|----------------------------------------------------------------------|

Continued:
|-7-7--4----------4-------4------4-------7^-------7^----------4-------|
|-7-7--4--7---4h7--4---4h7----4h7----4-7----4-7------7--4-7------7----|
|---------7-----------------------------------------------------------|
|---------------------------------------------------------------------|
|---------------------------------------------------------------------|
|---------------------------------------------------------------------|

Continued more:
|---------------------------------------------------------------------|
|---------------------------------------------------------------------|
|-----4--6-4---------------------------4------4-----------------------|
|-4-6--------6--4-4-6----6^--4-----4h6---6^hb----(7)-4-7-6-4--6-6-4---|
|---------------------6---------6----------------------------------6--|
|---------------------------------------------------------------------|
Related for Footprints On My Ceiling tab
Advertisement will be closed in 10 seconds