Song name
# A B C D E F G H I J K L M N O P Q R S T U V W X Y Z

Social Distortion - On My Nerves tab

Social Distortion
"On My Nerves"

I wanted to tab this cause nobody else will, this is my tab without my guitar.

standard tuning (e,b,g,d,a,e)
Intro solo:
                                     fast!>>>>>>>>>>>>>>>>>>>>>>taps
E------------------------------------------------------------------|
B-----------------3-6^-3-------------------------------------------|
G-0-0-0---3-3-3-5--------5-3-5~~-3--3-2-0-3-2-0-3-2-0-3-2-0-3-2-0--|
D-5-5-5----5-5--------------------5--------------------------------|
A------------------------------------------------------------------|
E------------------------------------------------------------------|

E----------------------------------------------3-3-3-3h5p3-3-3-3-3h5p3--|
B-----------------------------------------------------------------------|
G-5^-3------------------------------------------------------------------|
D------5-5-5-5--5-5/13-5-5/13-5-5/13-5-5/13-----------------------------|
A-----------------------------------------------------------------------|
E-----------------------------------------------------------------------|
Tap to rate this tab
 
# A B C D E F G H I J K L M N O P Q R S T U V W X Y Z