Song name
# A B C D E F G H I J K L M N O P Q R S T U V W X Y Z

Social Distortion - Drug Train tab

Intro : x4
|--------------------------------- |
|-pm***************--------------- |
|-(E)----------------------------- |
|--2---2--2---2--2-----------0---- |
|--2---2--2---2--2---0--0h2------- |
|--0---0--0---0--0---------------- |

Play this during the solo :
| ------------------------------- |
| ------------------------------- |
| ------------------------------- |
| --2--2---2--2---2--2---2--2---- |
| --2--2---2--2---2--2---2--2---- |
| --0--0---0--0---0--0---0--0---- |
pm  .........................

Verse : x8
| ------------------------------- |
| ------------------------------- |
| ------------------------------- |
| --2--2---2--2---2--2---2--2---- |
| --2--2---2--2---2--2---2--2---- |
| --0--0---0--0---0--0---0--0---- |
pm  .........................

Chorus : x2
| ------------------------------- |
| ------------------------------- |
| ------------------------------- |
| --3--3---3--3---3--3---3--3---- |
| --3--3---3--3---3--3---3--3---- |
| --1--1---1--1---1--1---1--1---- |
pm ..........................
Tap to rate this tab
# A B C D E F G H I J K L M N O P Q R S T U V W X Y Z