Song name
# A B C D E F G H I J K L M N O P Q R S T U V W X Y Z

Social Distortion - Bad Luck tab

     G   D  A
e|---3---2-------|
B|---3---3---2---|
G|---0---2---2---|
D|---0-------2---|
A|---2-----------|
E|---3-----------|

OR:
     G5  D5  A5
e|---------------|
B|---------------|
G|-------7-------|
D|---5---7---7---|
A|---5---5---7---|
E|---3-------5---|

solo part 2 ( in the middle of hte song
e|-33--33--33-33-33-33-6666666666666-3-333---------------------------------|
B|-33--33--33-33-33-33-5555555555555-3-333---------------------------------|
G|---5---5---5--5--5-----------------------3-5-3-5-3-5-3-5-3-33333---------|
D|-----------------------------------------------------------------5-------|
A|-------------------------------------------------------------------------|
E|-------------------------------------------------------------------------|

Tap to rate this tab
# A B C D E F G H I J K L M N O P Q R S T U V W X Y Z