Social Siberia - Lone Gunman tab

Social Siberia - Lone gunman
Tabbed by Roooger - Robin.G-92@hotmail.com
PLEASE COMMENT! 
Capo on 4:th fret

Intro: 
   Em         G                 Cadd9/B     Asus7        Em
e|-------3~-----------------------------------------------------------------| 
B|----------3----------3~------------3-----3-----3------------3-------------|
G|-----0-------------0----0--------0-----0-----0---0---0----0---0---0-------|
D|-0h2-----------------------------------------------2------------2---------|
A|------------0h2-----------0h2-3~----2-----0-------------------------------|
E|----------------3~--------------------------------------0-----------------|

e|--------------------------------------------------------------------------|
B|-------3-------------3-------------3--------------------------------------|
G|-----0---0---0-----0---0---0-----0---0---0--------------------------------|
D|-0h2-------2---0h2-------2---0h2-------2----------------------------------|
A|--------------------------------------------------------------------------|
E|--------------------------------------------------------------------------|


Verse:
    Em           G            Cadd9   /B   Asus7 
The road, little friend strip-searched our faith,

Em
   and broke our bones. 
     Em              G             C       C/B  Asus7         
It's hard to lock it up, when it's hurting over and over,
Em
    and heals once again.
   Em     G    C        C/B    Asus7     Em    
In broken homes, you're serial numbered, same kind of house.
                Em   G     C C/B      Asus7
They're all the same kind adoring the streets,
         Em
but they need the same cover because they play the same cards.


Bridge:
        Am
But the sun is set for now, sacred blood hangs around your neck.
G                 D                 Am
Sincerely written notes to ode your quest.
             Am
The sundance kid has blessed your path,
        C
sons of villians hail your sins,
    G                 D              Am
the sincerity will be written in the stars.


Chorus:
       G            Em
It's a short way to hell,
    D        C
the siren is gone.
       G               Em
It's a quick breath to take,
    D            C
but thick air to breath.


Verse 2:
       Em            G      C  C/B  Asus7             Em
In the night when no one is around, playing with your feelings

like they didn't know it was there.
  Em     G        C    C/B Asus7 Em
I know I must get back to  under wide wings,

it's time to sober up and pray for cold winds.
   Em     G        C   C/B    Asus7     Em    
In broken homes,you're serial numbered, same kind of house.
                     G     C C/B      Asus7
They're all the same kind adoring the streets,
         Em
but they need the same cover because they play the same cards.


Bridge:
        Am
But the sun is set for now, sacred blood hangs around your neck,
G                 D                 Am
sincerely written notes to ode your quest.

The sundance kid has blessed your path,
        C
sons of villians hail your sins,
    G                 D              Am
the sincerity will be written in the stars.


Chorus x2:
       G            Em
It's a short way to hell
    D        C
The siren is gone
       G               Em
It's a quick breath to take
    D            C
but thick air to breath


Intro : Em - G  - Cadd9/B - Asus7 - Em
Verse : Em - G  - Cadd9/B - Asus7 - Em x4
Bridge: Am - Am - G - D - Am
        Am - C  - G - D - Am
Chorus: G  - Em - D - C                x2
Intro : Em - G  - Cadd9/B - Asus7 - Em
Verse:  Em - G  - Cadd9/B - Asus7 - Em x4
Bridge: Am - Am - G - D - Am
        Am - C  - G - D - Am
Chorus: G  - Em - D - C                x4
Tap to rate this tab
 
# A B C D E F G H I J K L M N O P Q R S T U V W X Y Z