Song name
# A B C D E F G H I J K L M N O P Q R S T U V W X Y Z

Socialburn - Everyone tab

verse
e(----------------------------)
b(------------------xx3-x2-x--)
g(--5-5-55-5555-xx2-xx2-x2-x--)
d(--4-4-44-4444-xx2-xx0-x0-x4-)
a(--2-2-22-2222-xx0-xx-----x0-)
E(----------------------------)

chorus
e(----------------------)
b(----------------------)
g(--4444------5555-7777-)
d(--4444-4444-5555-7777-)
a(--2222-4444-3333-5555-)
E(-------2222-----------)

chorus(lead)                             chorus(lead 2)
e(--------------------------------555--)(------------)
b(--3-3h5-5/6-5-4-5555-5555-3333-3-----)(----------5-)
g(-------------------------------------)(--7-6-4-5---)
d(-------------------------------------)(------------)
a(-------------------------------------)(------------)
E(-------------------------------------)(------------)

solo
e(--12-10-9-10-17-10-9-10-12-10-9-10-17-10-9-10-12-10-9-10-17-10-9-10-)
b(--------------------------------------------------------------------)
g(--------------------------------------------------------------------)
d(--------------------------------------------------------------------)
a(--------------------------------------------------------------------)
E(--------------------------------------------------------------------)

solo continued      small breakdown
e(--5-7-9-10-9-)   (-----------)(------------------)
b(-------------)   (-----------)(--3/5-5/7-7/6-4/3-)
g(-------------)   (-----------)(------------------)
d(-------------)   (--44-44-44-)(------------------)
a(-------------)   (--44-44-44-)(------------------)
E(-------------)   (--22-22-22-)(------------------)
                       pm..
Tap to rate this tab
# A B C D E F G H I J K L M N O P Q R S T U V W X Y Z