Song name
# A B C D E F G H I J K L M N O P Q R S T U V W X Y Z

Socialburn - Never Be The Same tab

verse    (x3)
e(-----------------)(-------------)
b(-----------------)(-------------)
g(--11/9-999-99999-)(--4444444444-)
d(---9/7-777-77777-)(--2222222222-)
a(---9/7-777-77777-)(--2222222222-)
E(-----------------)(-------------)

verse(lead)    (x3)
e(-----------------)(-------------)
b(-----------------)(-------------)
g(--11/9-999-99999-)(--4444444444-)
d(-----------------)(-------------)
a(-----------------)(-------------)
E(-----------------)(-------------)

chorus     (x2)           (x2)
e(-----------------)(-------------------)
b(-----------------)(-------------------)
g(--11/9-999-99999-)(--11/9-77-14141414-)
d(---9/7-777-77777-)(---9/7-77-12121212-)
a(---9/7-777-77777-)(---9/7-77-12121212-)
E(-----------------)(-------------------)

post 1st chorus
e(----------------------------------)
b(----------------------------------)
g(--9-11-9--11-9-----------8-9-11-9-)
d(-----------------9-11-11----------)
a(----------------------------------)
E(----------------------------------)

solo      (x3)
e(-----------------)(--------------)
b(--10-9-----------)(--------------)
g(-------11-9------)(-----8-9-11-9-)
d(------------9/11-)(--11----------)
a(-----------------)(--------------)
E(-----------------)(--------------)
Tap to rate this tab
 
# A B C D E F G H I J K L M N O P Q R S T U V W X Y Z