Song name
# A B C D E F G H I J K L M N O P Q R S T U V W X Y Z

Socialburn - Ashes tab

verse                                         verse(lead)
e(------------------------------------------)(-------12------12-10-)
b(--1-1-11----------------------------------)(--8-10----8-10-------)
g(--2-2-22-55-5-5-55-5/7-7-7-7-x-5-5-5-5-xx-)(---------------------)
d(--2-2-22-55-5-5-55-5/7-7-7-7-x-5-5-5-5-xx-)(---------------------)
a(--0-0-00-33-3-3-33-3/5-5-5-5-x-3-3-3-3-xx-)(---------------------)
D(------------------------------------------)(---------------------)

chorus
e(-------------------------------------------)
b(-------------------------------------------)
g(--5-55------7-77------5-55------7-77-97-55-)
d(--5-55------7-77------5-55------7-77-97-55-)
a(--3-33------5-55------3-33------5-55-75-33-)
D(-------3-33------5-55------3-33------------)

solo
e(---------------12-----12-15-15------12-10-8-555------12---10---)
b(----------8-10-----------------8-10-------------8-10----8----8-)
g(--7-5-7-5------------------------------------------------------)
d(--7-5-7-5---------9-7------------------------------------------)
a(--5-3-5-3------------------------------------------------------)
D(---------------------------------------------------------------)

solo continued
e(--12-15-15-17-12-17-17-17-17-15-15-15-15-15-17-17-17-12-19-19-19-19b20-)
b(-----------------------------------------------------------------------)
g(-----------------------------------------------------------------------)
d(-----------------------------------------------------------------------)
a(-----------------------------------------------------------------------)
D(-----------------------------------------------------------------------)
Tap to rate this tab
# A B C D E F G H I J K L M N O P Q R S T U V W X Y Z