Socialburn - Stacy tab

Artist: socialburn
Song: Stacy
Album: Where You Are
Tabber: Steven Rehbein (sonicbluezx3@yahoo.com)
Tuning: Drop D (D-A-D-G-B-E)


Intro/Verse:
E----------------<5>---|
B----------------------|
G-------<7>------------|
D----<7>----<12>-------|
A-<7>------------------|
D----------------------|

Chorus:
E------------------------------------------------------------------|
B------------------------------------------------------------------|
G------------------------------------------------------------------|
D-5-5-5-5-5-5-5-5-5-5-5-5-5-5-5-5-9-9-9-9-9-9-9-9-9-9-9-9-9-9-9-9--|
A-5-5-5-5-5-5-5-5-5-5-5-5-5-5-5-5-9-9-9-9-9-9-9-9-9-9-9-9-9-9-9-9--|
D-5-5-5-5-5-5-5-5-5-5-5-5-5-5-5-5-9-9-9-9-9-9-9-9-9-9-9-9-9-9-9-9--|

Guitar 2:
E------------------------------------------------------------------|
B------------------------------------------------------------------|
G------------------------------------------------------------------|
D------------------------------------------------------------------|
A---------------------------------5-----4-----7-----5---4-5-4-0----|
D------------------------------------------------------------------|

Second Chorus Part:
E-----------------------------------------------------------------|
B-----------------------------------------------------------------|
G-----------------------------------------------------------------|
D--0--0--0-0-2-2-0--4--4--4-4-0-2-2-0--5--------------------------|
A--0--0--0-0-2-2-0--4--4--4-4-0-2-2-0--5--------------------------|
D--0--0--0-0-2-2-0--4--4--4-4-0-2-2-0--5--------------------------|

Solo:
E------------------------------------------------------------------|
B------------------------------------------------------------------|
G--------------------2---------------------------------------------|
D-0----0-0-2--2--4-------4------4--4--2--0--2--0-------------------|
A------------------------------------------------------------------|
D------------------------------------------------------------------|

E------------------------------------------------------------------|
B--15--14----------------------------------------------------------|
G----------14------14----------------------------------------------|
D--------------16------14------------------------------------------|
A---------------------------17-------------------------------------|
D------------------------------------------------------------------|

Ending:
E----------------------|
B----------------------|
G-------<7>------------|
D----<7>----<12>-------|
A-<7>------------------|
D----------------------|

E----------------<5>---|
B----------------------|
G-------<7>------------|
D----<7>----<12>-------|
A-<7>------------------|
D----------------------|

E----------------------|
B----------------------|
G-------<7>------------|
D----<7>----<12>-------|
A-<7>------------------|
D----------------------|

E---------------------------<5>---|
B---------------------------------|
G-----------<7>-------------------|
D------<7>---------<12>-----------|
A-<7>-----------------------------|
D---------------------------------|

That's it, it should be 100% correct except I'm not for sure about the second part of 
the solo. I think it's pretty close tho. If you have any questions, email me about it.
Tap to rate this tab
 
# A B C D E F G H I J K L M N O P Q R S T U V W X Y Z