Song name
# A B C D E F G H I J K L M N O P Q R S T U V W X Y Z

Socialburn - Stacy tab

verse   (harmonisc)
e(-------------)
b(-----------5-)
g(------5------)
d(--------5----)
a(----5--------)
E(--5----------)

chorus
e(--------------------------------------------------)
b(--------------------------------------------------)
g(--------------------------------------------------)
d(--5555-555-55-5555-555-55-9999-999-99-9999-999-99-)
e(--5555-555-55-5555-555-55-9999-999-99-9999-999-99-)
E(--3333-333-33-3333-333-33-7777-777-77-7777-777-77-)

chorus(lead)
e(-----------------------)
b(-----------------------)
g(-----------------------)
d(--12-11-12-14-12b13-11-)
a(-----------------------)
E(-----------------------)

bridge               solo
e(--------------)(-----------------------------------------)
b(--------------)(-----------------------------------------)
g(--------------)(-----------------------------------------)
d(--5555-5/7777-)(--12-12/14-12-14/16-17-19-16-16-16-14-12-)
a(--5555-5/7777-)(-----------------------------------------)
E(--3333-3/5555-)(-----------------------------------------)

solo continued                     solo(lead)
e(-----------------------------)(--21-17-15----17-14-)
b(-----------------------------)(-----------15-------)
g(-----------------14-16-16/14-)(--------------------)
d(--12-12/14-14/16-------------)(--------------------)
a(-----------------------------)(--------------------)
E(-----------------------------)(--------------------)
Tap to rate this tab
# A B C D E F G H I J K L M N O P Q R S T U V W X Y Z