Song name
# A B C D E F G H I J K L M N O P Q R S T U V W X Y Z

Socialburn - Im Happy tab

verse
e(------------------------------------------------------------------------)
b(------------------------------------------------------------5-----------)
g(------2---4---2-------2---4-------2---4---2-------2---4---4---4-4-------)
d(----2---2---2---2---2---2-------2---2---2---2---2---2---2---------2-----)
a(--0---------------0---------0-2---------------2---------------------2-0-)
E(------------------------------------------------------------------------)

verse(lead)
e(---------)
b(---------)
g(--222-33-)
d(---------)
a(---------)
E(---------)

chorus
e(-------------------------------)
b(-------------------------------)
g(--2222222222222222777766664444-)
d(--2222222222222222777766664444-)
a(--0000000000000000555544442222-)
E(-------------------------------)
 
chorus(lead)                          breakdown
e(----------------------------------)(--5-7-5-9-12p9-----------)(----)
b(----------------------------------)(-------------------------)(----)
g(--6666666666666779999999977777777-)(-------------------------)(--9-)
d(----------------------------------)(---------------7-9p7-6/4-)(--7-)
a(----------------------------------)(-------------------------)(----)
E(----------------------------------)(-------------------------)(----)

Tap to rate this tab
 
# A B C D E F G H I J K L M N O P Q R S T U V W X Y Z