Song name
# A B C D E F G H I J K L M N O P Q R S T U V W X Y Z

Socket - Unchanged tab

Socket--Unchanged

Tuning low to high DADGBE

intro and verse

fig. 1
e-----------------------------------------------------------
B--0h1p0-----0------0-------------0h1p0-----0----0----------
G--------0----0------0------------------0----0----0---------
D------------------------------2----------------------------
A----------3-------------0h2h3------------3------------5s7--
D--3------------3s5----5----------3-----------3s2---2s5---0-


chorus
e-----------------------------------------------------------
B--------------------1-111-1--0-0h1p0-----------------------
G--------------------2-222-2---------2----------------------
D-3-333-3--33-3333---2-222-2----------2-5-555-5--555-5-555-5
A-3-333-3--33-3333---0-000-0------------5-555-5--555-5-555-5
D-3-333-3--33-3333----------------------5-555-5--555-5-555-5

song order:

Intro fig. 1 2x
verse fig. 1 4x
Tap to rate this tab
# A B C D E F G H I J K L M N O P Q R S T U V W X Y Z