Song name
# A B C D E F G H I J K L M N O P Q R S T U V W X Y Z

Sod - Speak English Or Die tab

SOD-Stormtroopers of Death
"Speak English or Die"
From the album: Speak English or Die

a)Main Riff: Intro & Verse

E|-------------|
B|-------------|
G|-------------|
D|--2-4-5-----2|
A|--2-2-3-5-4-2|
E|--0-----3-2-0|

b) Chorus

E|---------------------------------------------------------------------------|
B|---------------------------------------------------------------------------|
G|---------------------------------------------------------------------------|
D|---------------------------------------------------------------------------|
A|----------------------------------------4-4-4-4-4-4-4-4-4-4----------------|
E|-3-3-3-3-3-3-3-3-3-3-6-6-6-6-6-6-6-6-6-6-------------------4-4-4-4-4-4-4-4-|

E|------------------------------|
B|------------------------------|
G|------------------------------|
D|------------------------------|
A|------------------------------|
E|-4-4-4-4-4-3-3-3-3-3-3-3-3-3-3|

c) Breakdown/"Mosh"

E|-------------|      E|------------------|
B|-------------|      B|------------------|
G|-------------|  x5  G|------------------|
D|--2-4-5-----2|      D|-----------------2|
A|--2-2-3-5-4-2|      A|-5-5-5-5-3-3-3-3-2|
E|--0-----3-2-0|      E|-3-3-3-3-1-1-1-1-0|


Song Order:
a,b,a,c(multiple times),b
Tap to rate this tab
# A B C D E F G H I J K L M N O P Q R S T U V W X Y Z