Guitaretab - guitar tabs
Song name
# A B C D E F G H I J K L M N O P Q R S T U V W X Y Z

Sod - Speak English Or Die tab

Band: S.O.D.
Song: Speak English Or Die!
Album: Speak Engligh Or Die!
Tabbed By: Nigel Krick
E-mail: chaos-deathcult@totaldeath.com

.=palm mute

Riff 1

e:|---------------------| 
B:|---------------------| 
G:|---------------------| 
D:|----4-5--------------| 
A:|-4--2-3-5/4----------| 
E:|-2------3/2----------|

Riff 2

e:|----------------------------------|---| 
B:|----------------------------------|---| 
G:|----------------------------------|---| - Alt. ending 
D:|----------------------------------|-6-| 
A:|----------------------------------|-6-| 
E:|-33333333666666669999999944444444-|-4-|

Riff 3

e:|-------------------| 
B:|-------------------| 
G:|-----4---5---------| 
D:|-4---4---5---5/4---| 
A:|-4---2---3---5/4---| 
E:|-2-----------3/2---|

Riff 4

e:|-----------------------------------------| 
B:|-----------------------------------------| 
G:|-----------------------------------------| 
D:|-5-55-5-55-5-55-5-55-4-44-4-44-4-44-4-44-| 
A:|-5-55-5-55-5-55-5-55-4-44-4-44-4-44-4-44-| 
E:|-3-33-3-33-3-33-3-33-2-22-2-22-2-22-2-22-|
      ..   ..   ..   ..   ..   ..   ..   .. 

Riff 5

e:|--------------------------------------| 
B:|--------------------------------------| 
G:|--------------------------------------| 
D:|-4-44-4-44-4-44-4-44-3-33-3-33-3-33-2-| 
A:|-4-44-4-44-4-44-4-44-3-33-3-33-3-33-2-| 
E:|-2-22-2-22-2-22-2-22-1-11-1-11-1-11-0-|
      ..   ..   ..   ..   ..   ..   ..
[ Tab from: http://www.guitaretab.com/s/sod/43704.html ]
Related for Speak English Or Die tab