Song name
# A B C D E F G H I J K L M N O P Q R S T U V W X Y Z

Sod - Seargent D And The Sod tab

Help us improve GuitareTab! Take a short survey!
S.O.D. -  Sargent 'D' & the S.O.D.

Fill in 1 Fill in 2  Main riff                       let ring last time     
---------I---------I-------------------------------------
---------I---------I-------------------------------------
---------I---------I-------------------------------------
---------I---------I-------------------------------------
--8-7----I-2-------I---------------------------8-(8)-7---
--6-5----I-0-------I--0-3-0-3-0-3-0-3-0-3-0-0--6-(6)-5---
                      pm - - - - - - - - - - I          



Chorus                              let ring last time
---------------------------------------------------------
---------------------------------------------------------
---------------------------------------------------------
---------------------------------------------------------
--7------------------8----------5-9-8--------------------
--5-5555555555555555-6-66666666-3-7-6--------------------

    pm - - - - - - I   pm - - I


Bridge
---------------------------------------------------------
---------------------------------------------------------
---------------------------------------------------------
-----------3-2-------------------------------------------
--2--2-4-5-1-0-5-2--2-4-5-2-3-4--------------------------
--0--0-2-3-----3-0--0-2-3-0-1-2--------------------------



Any comment can be e-mailed to gudde@antisocial.com, and will be politely ignored
Related for Seargent D And The Sod tab