Guitaretab - guitar tabs
Song name
# A B C D E F G H I J K L M N O P Q R S T U V W X Y Z

Sod - Milano Mosh tab

S.O.D. - Milano Mosh
>From "Speak English or Die"
Tabbed by: John McNeal (Lynching@aol.com)


Riff 1
|-------------------|
|-------------------|
|-------------------|
|-----6-----6-----6-|
|-5-4-4-5-4-4-5-4-4-| 
|-3-2---3-2---3-2---|

Riff 2
|-------|
|-------|
|-------|
|-----7-| 
|-5-4-5-| 
|-3-2---|


Riff 3
|----------------------------------------|
|----------------------------------------|
|----------------------------------------|
|----------------------------------------|
|----------------------------------------|
|-11111111111111111111111111111111111111-|

Riff 4 
|-----------------------------------------------------------| 
|-----------------------------------------------------------|
|-----------------------------------------------------------|
|-5--6--5--4-5-6-5--6--5--4-5-6-5--6--5--4-5-6-5--6---4-5-6-|
|-3--4--3--2-3-4-3--4--3--2-3-4-3--4--3--2-3-4-3--4---2-3-4-|
|-----------------------------------------------------------|

|------------------------------------------------------| 
|------------------------------------------------------|
|------------------------------------------------------|
|-5--6--5--4-5-6-5--6--5--4-5-6-5--6--5--4-5-6-5--6--5-|
|-3--4--3--2-3-4-3--4--3--2-3-4-3--4--3--2-3-4-3--4--3-|
|------------------------------------------------------|

Riff 5
|--------------------------------------------------|
|--------------------------------------------------|
|------------------------------6-----6-----6-----6-|
|-----6-----6-----6-----6--5-4-4-5-4-4-5-4-4-5-4-4-|
|-5-4-4-5-4-4-5-4-4-5-4-4--3-2---3-2---3-2---3-2---|
|-3-2---3-2---3-2---3-2----------------------------|

|-------------------------|
|-------------------------|
|-------------------------|
|-----6-----6-----6-----6-|
|-5-4-4-5-4-4-5-4-4-5-4-4-| 
|-3-2---3-2---3-2---3-2---|

Riff 6 
|-------------------------|
|-------------------------|
|-------------------------|
|-----6-----6-----6-----6-|
|-5-4-4-5-4-4-5-4-4-5-4-4-|
|-3-2---3-2---3-2---3-2---|

|------------------------------------------------------| 
|------------------------------------------------------|
|------------------------------------------------------|
|-5--6--5--4-5-6-5--6--5--4-5-6-5--6--5--4-5-6-5--6--5-|
|-3--4--3--2-3-4-3--4--3--2-3-4-3--4--3--2-3-4-3--4--3-|
|------------------------------------------------------|

|----------------------------|
|----------------------------|
|----------------------------|
|-----6-----6-----6-----6-5/-|
|-5-4-4-5-4-4-5-4-4-5-4-4-3/-|
|-3-2---3-2---3-2---3-2------|


Riff 1 x 5
Riff 2 x 1
Riff 3 x 4
Riff 4 x 1
Riff 5 x 1
Riff 3 x 4
Riff 4 x 1
Riff 6 x 1
[ Tab from: http://www.guitaretab.com/s/sod/43707.html ]
Related for Milano Mosh tab