Song name
# A B C D E F G H I J K L M N O P Q R S T U V W X Y Z

Sod - Sargent D tab

Band: S.O.D.
Song: "Sargent D"
Album: Speak English Or Die!
Tabbed By: Nigel Krick and Sephirot
E-mail: Chaos-deathcult@totaldeath.com, freeza@ironmaiden.com

Opening Riff

E:|----------------------------| 
B:|----------------------------| 
G:|----------------------------| 
D:|----------------------------|
A:|4-5-4-5-4-5-4-5--------7-6--|
E:|2-3-2-3-2-3-2-3--------5-4--|


Main Riff

e:|-----------------------------| 
B:|-----------------------------| 
G:|-----------------------------| 
D:|-----------------------------| 
A:|-7----------8----------6-9-8-| 
E:|-5-55555555-6-66666666-4-7-6-|

Break-down Riff

e:|----------------------------| 
B:|----------------------------| 
G:|----------------------------| 
D:|----------------------------| 
A:|-2-----------2--------------| 
E:|-0-2h3--6h7--0-4h5--8h9-----|

End song by playing half of the break down riff.
Tap to rate this tab
# A B C D E F G H I J K L M N O P Q R S T U V W X Y Z