Song name
# A B C D E F G H I J K L M N O P Q R S T U V W X Y Z

Sod - Fuck The Middle East tab

Band: S.O.D.
Song: "Fuck The Middle East"
Album: Speak English Or Die!
tabbed by: Nigel Krcik
E-mail: chaos-deathcult@totaldeath.com

*all notes are 1s and 2s not 12s!*

                          
|-------------------------|---|
|-------------------------|---|
|-------------------------|-5-| - alt. ending 
|-----------------1-2---3-|-3-| 
|-0-0-0-0-0-0-0-0-----3---|---|

|----------------------|---|
|----------------------|---|
|----------------------|---|
|----------------------|---| - alt. ending
|----------------12-3--|-2-|
|0000000000000000--3---|-0-|
Tap to rate this tab
# A B C D E F G H I J K L M N O P Q R S T U V W X Y Z