Guitaretab - guitar tabs
Song name
# A B C D E F G H I J K L M N O P Q R S T U V W X Y Z

Sod - Sargent D Of The Sod tab

Title: Sargent 'D' of the S.O.D.
Artist: S.O.D.
Album: Speak English or Die

Instrument: Guitar

Tabbed by: FredzHead (Fredzhead@slayerized.com)

Tuning: Dropped D (D A D G B E)Bass intro
|--------------|--------------|--------------|----------------||
|--------------|--------------|--------------|----------------||
|--------------|--------------|--------------|----------------||
|--------------|--------------|--------------|----------------||
|--------------|--------------|--------------|----------6--5--||
|--------------|--------------|--------------|----------6--5--||

Verse
Main riff 
|--------------------------------|
|--------------------------------|
|--------------------------------|
|--------------------------------|X8
|-0-2-0-3-0-2-0-3-0-0-0-0--6--5--|
|-0-2-0-3-0-2-0-3-0-0-0-0--6--5--|

Chorus Riff
|-----------------------|--------------------------||
|-----------------------|--------------------------||
|-----------------------|--------------------------||
|-----------------------|--------------------------||
|-5----------6----------|--3----8----6----5--------||X5
|-5-55555555-6-66666666-|--3----8----6----5--------||

Verse 2
|--------------------------------|
|--------------------------------|
|--------------------------------|
|--------------------------------|X6
|-0-2-0-3-0-2-0-3-0-0-0-0--6--5--|
|-0-2-0-3-0-2-0-3-0-0-0-0--6--5--|
[ Tab from: http://www.guitaretab.com/s/sod/43717.html ]
Chorus 2
|-----------------------|--------------------------||
|-----------------------|--------------------------||
|-----------------------|--------------------------||
|-----------------------|--------------------------||
|-5----------6----------|--3----8----6----5--------||X5
|-5-55555555-6-66666666-|--3----8----6----5--------||

Interlude
|-------------------|--------------------||
|-------------------|--------------------||
|-------------------|--------------------||
|-------------------|--------------------||
|-0-----2/3--6\5-5--|--0-----2/3--5/6-6--||X4 Normal Speed
|-0--0--2/3--6\5-5--|--0--0--2/3--5/6-6--||

|-------------------|--------------------||
|-------------------|--------------------||
|-------------------|--------------------||
|-------------------|--------------------||
|-0-----2/3--6\5-5--|--0-----2/3--5/6-6--||X4 Increasing in Speed 
|-0--0--2/3--6\5-5--|--0--0--2/3--5/6-6--||

|-------------------|--------------------||
|-------------------|--------------------||
|-------------------|--------------------||
|-------------------|--------------------||
|-0-----2/3--6\5-5--|--0-----2/3--5/6-6--||X4 VERY FAST
|-0--0--2/3--6\5-5--|--0--0--2/3--5/6-6--||

Last Verse 
|--------------------------------|
|--------------------------------|
|--------------------------------|
|--------------------------------|X6
|-0-2-0-3-0-2-0-3-0-0-0-0--6--5--|
|-0-2-0-3-0-2-0-3-0-0-0-0--6--5--|

Last Chorus
|-----------------------|--------------------------||
|-----------------------|--------------------------||
|-----------------------|--------------------------||
|-----------------------|--------------------------||
|-5----------6----------|--3----8----6----5--------||X5
|-5-55555555-6-66666666-|--3----8----6----5--------||

END
|-------------------|----------
|-------------------|----------
|-------------------|----------
|-------------------|----------
|-0-----2/3--6\5-5--|-0--------
|-0--0--2/3--6\5-5--|-0--------
Related for Sargent D Of The Sod tab