Song name
# A B C D E F G H I J K L M N O P Q R S T U V W X Y Z

Sod - Song That Dont Go Fast tab

the song that don't go fast

by S.O.D.
from the album 'bigger than the devil'

transcribed by Christian Reindel (creindel@gmx.de)
any questions or corrections e-mail me

tune down 1 step (dropped C tuning)

  main-riff
D:|----------------------------------|
A:|----------------------------------|
F:|----------------------------------|
C:|----------------------------------|
G:|--5--6---9--8---2--3--0-(0)-------|
C:|--5--6---9--8---2--3--0-(0)-------|

   blastbeat-part
D:|----------------------------------|
A:|----------------------------------|
F:|----------------------------------|
C:|----------------------------------|
G:|--2-----2------2222222222222------|
C:|--2-----2------2222222222222------|

that's it.
Tap to rate this tab
 
# A B C D E F G H I J K L M N O P Q R S T U V W X Y Z