Song name
# A B C D E F G H I J K L M N O P Q R S T U V W X Y Z

Soda Stereo - Juegos De Seduccion Live tab

INTRO:
     Bsus4
e|----0-----|
B|----0-----|
G|----4-----|
D|----4-----|
A|----2-----|
E|----------|

e|--12p11----------------12p11-------------------|
B|--------12-10----12-10-------12-10----10h12----|
G|--------------11-------------------11----------|
D|-----------------------------------------------|
A|-----------------------------------------------|
E|-----------------------------------------------|


e|--12p11-------------------14-11-12-11----------|
B|--------12-10----10-12-10-------------12-------|
G|--------------11-------------------------------|2x
D|-----------------------------------------------|
A|-----------------------------------------------|
E|-----------------------------------------------|

e|--12p11----------------12p11-------------------|
B|--------12-10----12-10-------12-10----10h12----|
G|--------------11-------------------11----------|
D|-----------------------------------------------|
A|-----------------------------------------------|
E|-----------------------------------------------|


e|--12p11-------------------14-------------------|
B|--------12-10----10-12-10----------------------|
G|--------------11-------------------------------|
D|-----------------------------------------------|
A|-----------------------------------------------|
E|-----------------------------------------------|

e|--12p11----------------12p11-------------------12-11------|
B|--------12-10----12-10-------12-10----10h12-----------12--|
G|--------------11-------------------11---------------------|
D|----------------------------------------------------------|
A|----------------------------------------------------------|
E|----------------------------------------------------------|

ESTROFA:
    Bsus4                F#7sus          A6          Esus2
e|---0--------------------0--------------0-------------0--------------------|
B|---0--------------------0--------------0-------------0--------------------|
G|---4--------------------4--------------4-------------4--------------------|
D|---4--------------------4--------------4-------------4--------------------|
A|---2--------------------x--------------0-------------x--------------------|
E|------------------------2----------------------------0--------------------|
        voy a ser tu mayordomo  y vos haras el rol de senora bien

    Bsus4                  F#7sus      A6               D   Dbm
e|---0----------------------0-----------0---------------2----4--------------|
B|---0----------------------0-----------0---------------3----5--------------|
G|---4----------------------4-----------4---------------2----6--------------|
D|---4----------------------4-----------4---------------4----6--------------|
A|---2----------------------x-----------0---------------5----4--------------|
E|--------------------------2-----------------------------------------------|
        o puedo ser tu violador   la imaginacion  esta noche todo lo puede

CORO:
    B     E     A     G    B    E            A      G
e|--7-----7-----5-----3----7----7------------5------3----------------------|
B|--7-----9-----5-----3----7----9------------5------3----------------------|
G|--8-----9-----6-----4----8----9------------6------4----------------------|
D|--9-----9-----7-----5----9----9------------7------5----------------------|
A|--9-----7-----7-----5----9----7------------7------5----------------------|
E|--7-----------5-----3----7-----------------5------3----------------------|
                     te llevare   hasta el extremo te llevare
     eh    eh    eh abrazame    este es el juego de seduccion

estrofa, coro...

  F#7add4  Aadd9  Abm#5
e|----0------0------0---------|
B|----0------0------0---------|
G|----3------6------4---------| 4x
D|----4------7------6---------|
A|----4------7------6---------|
E|----2------5------4---------|

intro,..

e|-------------------------------------------0------------------------------|
B|---------2-------2-------2-----2-------2------------2-------0-------------|
G|------4--------4-------3-----3-------4---4-------4--------------6---------|
D|----5--------5-------4------4------5----------5----------6----------------|
A|--------------------------------------------------------------------------|
E|--------------------------------------------------------------------------|

  te llevare....

   Bsus4                  F#7sus       A6           Esus2
e|---0----------------------0-----------0-------------0--------------------|
B|---0----------------------0-----------0-------------0--------------------|
G|---4----------------------4-----------4-------------4--------------------|
D|---4----------------------4-----------4-------------4--------------------|
A|---2----------------------x-----------0-------------x--------------------|
E|--------------------------2-------------------------0--------------------|
       estamos solos en la selva nadie puede venir a rescatarnos

   Bsus4                 F#7sus        Asus2
e|---0----------------------0-----------0----------------------------------|
B|---0----------------------0-----------0----------------------------------|
G|---4----------------------4-----------4----------------------------------|
D|---4----------------------4-----------4----------------------------------|
A|---2----------------------x-----------0----------------------------------|
E|--------------------------2----------------------------------------------|
        estoy muriendome de sed y es tu propia piel

          D         Dbm    D       Dbm     D        Dbm         F#7add4
e|--------2----------4-----2--------4------2---------4------------0---------|
B|--------3----------5-----3--------5------3---------5------------0---------|
G|--------2----------6-----2--------6------2---------6------------3---------|
D|--------4----------6-----4--------6------4---------6------------4---------|
A|--------5----------4-----5--------4------5---------4------------4---------|
E|----------------------------------------------------------------2---------|
  la que me hace mover   me hace mover    me hace mover en extremos

e|-------------------------------------------0------------------------------|
B|---------2-------2-------2-----2-------2------------2---0-------0---------|
G|------4--------4-------3-----3-------4---4-------4-------6---------6------|
D|----5--------5-------4------4------5----------5------6-------6------------|
A|--------------------------------------------------------------------------|
E|--------------------------------------------------------------------------|


e|----------------------------------------------0---------|
B|---------2-------2-------2-----2-------2------2---------|
G|------4--------4-------3-----3-------4---4----4---------|
D|----5--------5-------4------4------5----------5---------|
A|--------------------------------------------------------|
E|--------------------------------------------------------|
Tap to rate this tab
 
# A B C D E F G H I J K L M N O P Q R S T U V W X Y Z