Song name
# A B C D E F G H I J K L M N O P Q R S T U V W X Y Z

Soda Stereo - Superstar tab

Soda Stereo - Superstar
From album "Comfort y música para volar"
Del disco "Comfort y música para volar"

Very easy song, although some chords change fast, figure out yourself.
Canción muy fácil, aunque algunos acordes cambian rápido, investiga vos mismo.

Intro (change chords very fast):
Intro (cambio de acordes muy rápido):
-------------------------------------

      G     F  F6 Em   A-Asus4   G     F  F6 Em    A-Asus4-Asin3

e-----3-----1--0--0--------------3-----1--0--0---------------|
B-----3-----1--0--0-----2-3-2----3-----1--0--0-----2-3-/-5---|
G-----4-----2--2--0-----2-2-2----4-----2--2--0-----2-2-------|	x2
D-----5-----3--3--2-----2-2-2----5-----3--3--2-----2-2-------|
A-----5-----3--3--2-----0--------5-----3--3--2-----0---------|
E-----3-----1--1--0--------------3-----1--1--0---------------|

Frase:
------
Same as intro x4
Igual que la intro x4

Estrib:
-------

e-----------------------------------------------------|
B-----------------------------------------------------|
G---------------------------------------2u-2-0--------|
D---2/4-4-0-2-2-0-0-------0-2-2/4-4-2-2--------4-2-0--|
A---------------------0-2-----------------------------|
E-----------------------------------------------------|

e-----------------------------------------------------|
B-----------------------------------------------------|
G---------------------------------------4u-2-0--------|
D---2/4-4-0-2-2-0-0-------0-2-2/4-4-2-2--------4-2-0--|
A---------------------0-2-----------------------------|
E-----------------------------------------------------|

Repeat 2 times
Repetir 2 veces

2nd frase:
2a frase:
---------

Same as 1st, but play first A-Asus4-Asin3 and then A-Asus4
Igual que la primera, pero primero toca A-Asus4-Asin3 y luego A-Asus4

Estrib:
-------

Same as first estrib.
Igual que el primer estribillo.

Inter:
------
      G5+   G6+   G     G6+   G5+   G6+   G     G6+

e-----3-----3-----3-----3-----3-----3-----3-----3-----|
B-----3-----2-----0-----2-----3-----2-----0-----2-----|
G-----0-----0-----0-----0-----0-----0-----0-----0-----|
D-----0-----0-----0-----0-----0-----0-----0-----0-----|
A-----2-----------2-----------2-----------2-----------|
E-----3-----3-----3-----3-----3-----3-----3-----3-----|


Play intro 2 times.

G...

Silence...

Outro:
------

      G5+   A15   C11   Em7/9

e-----3-----3-----3-----3-----|
B-----3-----2-----1-----3-----|
G-----0-----2-----0-----0-----|	  Repeat to the end fading
D-----0-----2-----2-----2-----|   Repetir hasta el final desvaneciendo
A-----2-----0-----3-----2-----|
E-----3-----------------0-----|


References:
Referencias:
------------

/ slide (deslizar)
u bend the string up (levantar la cuerda)

Please for comments and suggestions e-mail me: wasamara@pedro.net.ar
Para comentarios y sugerencias envia un mail a: wasamara@pedro.net.ar
Tap to rate this tab
 
# A B C D E F G H I J K L M N O P Q R S T U V W X Y Z