Guitaretab - guitar tabs
Song name
# A B C D E F G H I J K L M N O P Q R S T U V W X Y Z

Soda Stereo - Nada Personal tab

Banda: Soda Stereo
Cancion: Nada Personal
Transcrito por: Carlos Ramirez
Afinacion: EADGBe


INTRO:
e|------------------------------------|
B|------------------------------------|
G|------------------------------------|  (repetir)
D|------------------------------------|
A|---4-4-----6-6-----2-2--------------|
E|-------4-4-----4-4------4-4-2-------|

VERSO:
e|---------------0----------------------0------------------|
B|-------------0----------0----------0------------0--------|
G|-----------1----------1----2-----2-----------2-----------|
D|--------2---------2-----------4-----------4--------------|
A|---------------------------------------------------------|
E|--0------------------------------------------------------|
       comunicacion sin emocion

e|---------------0--------------------------------0------------------|
B|-------------0----------------0--------------0---------------------|
G|-----------1--------------1------2---------2-----------------------|
D|-1------2-------------2-----------------4--------------------------|
A|-------------------------------------------------------------------|
E|-------------------------------------------------------------------|
     una voz en off    con expresion            deforme
[ Tab from: http://www.guitaretab.com/s/soda-stereo/17786.html ]
e|---------------11-11------------------9--9-------------11--------9-9-|
B|--9--11----9---11-11--9--11-----9-----9--9------9-11-9-11-9-11-9-9-9-|
G|--9--11----9----------9--11-----9---------------8-10-8----8-10-8-----|
D|--9--11----9----------9--11-----9---------------9-11-9----9-11-9-----|
A|---------------------------------------------------------------------|
E|---------------------------------------------------------------------|
       busco algo          que me saque este mareo
       busco un calor      en esa imagen de video

e|----6--------------7--------------------------6---------------4------|
B|----7--------------9--------------------------7---------------5------|
G|----6--------------9--------------------------8---------------4------|
D|----8--------------9--------------------------8---------------6------|
A|----9--------------7--------------------------6---------------7------|
E|---------------------------------------------------------------------|
        nada (oh oh oh) nada personal   (oh oh oh) nada (oh oh oh)
                                                           nada personal

   verso, coro..

e|-------------12------|
B|-------------12------|
G|-------------11------|
D|-------------11------|
A|---------------------|
E|---------------------|
     nada especial..


INSTRUMENTAL:
e|-----------|--------------------      ----------|
B|---12--14--|--11-9----12----11--      -11--9----|
G|---11--13--|--10-8----11----10-- (3)  -10--8----|
D|-----------|--------------------      ----------|
A|-----------|--------------------      ----------|
E|-----------|--------------------      ----------|


  verso, coro..


FINAL:
e|---4------6-----4----6----------|
B|---5------7-----5----5----------|
G|---4------6-----4----6----------|
D|---6------8-----6----7----------|
A|---4------6-----4----8----------|
E|--------------------------------|
                       nada...

e|---7-------6------4-------6------------|
B|---9-------5------5-------7------------|
G|---9-------7------4-------6------------| (repetir)
D|---9-------7------6-------8------------|
A|---7-------6------7-------9------------|
E|---------------------------------------|
 oh oh oh oh oh oh oh oh  oh oh oh...
Related for Nada Personal tab
Nada Personal chords by Soda Stereo