Guitaretab - guitar tabs
Song name
# A B C D E F G H I J K L M N O P Q R S T U V W X Y Z

Soda Stereo - Te Para Tres tab

-------------------------------------------------------------------------------
			     TE PARA TRES - Soda Stereo
-------------------------------------------------------------------------------
Tabbed by: Luis Alberth
 

 SOLO - Originally

e|------19--15---------------19--15----------------------------------------|
B|--15----------17/19----15----------17/19------17b(19)p15--17-------------|
G|-------------------------------------------------------------------------|
D|-------------------------------------------------------------------------|
A|-------------------------------------------------------------------------|
E|-------------------------------------------------------------------------|

e|------19--15---------------19--15----------------------------------------|
B|--15----------17/19----15----------17/19------17b(19)p15--17-------------|
G|--------------------------------------------------------------14b(16)p12-|
D|-------------------------------------------------------------------------|
A|-------------------------------------------------------------------------|
E|-------------------------------------------------------------------------|


e|------19--15---------------19--15----------------------------------------|
B|--15----------17/19----15----------17/19------17b(19)p15--17~/20---------|
G|----------------------------------------------------------(Fast)---------|
D|-------------------------------------------------------------------------|
A|-------------------------------------------------------------------------|
E|-------------------------------------------------------------------------|


e|------19--15---------------19--15----------------------------------------|
B|--15----------17/19----15----------17/19------17b(19)p15--17-------------|
G|-------------------------------------------------------------------------|
D|-------------------------------------------------------------------------|
A|-------------------------------------------------------------------------|
E|-------------------------------------------------------------------------|

e|------5/7\5---5/7---5------------12/14\2-----------------------------5---|
B|------5/7\5---5/7---5----5-------12/14\2-----------------------------5---|
G|--5---5/7\5---5/7---5----5-------12/14\2--------------7--6--5---5----5---|
D|--7----------------------7----(eco-Guitar)----10~--------------------7---|
A|--7----------------------7-------------------------7--------------5--7---|
E|-----------------------5-------------------------------------------------|
[ Tab from: http://www.guitaretab.com/s/soda-stereo/17792.html ]
e|--------7--10--9--8--7---------------------------------------------------|
B|-----8------------------8--10--7--8--------------------------------------|
G|--9----------------------------------9--7--9~---------7------------------|
D|-------------------------------------------------7/9-----9p7-------------|
A|-------------------------------------------------------------------------|
E|-------------------------------------------------------------------------|

e|-------3--5--5/7--5--3--5--7/9--7--5--------3h2--------------------------|
B|-------3-5-5/7--5--3--5--7/9--7--5----(eco-Guitar)---------------------|
G|--3h4--4-6--5/7--6--4--6--7/9--7--6-------------------------------------|
D|-------------------------------------------------------------------------|
A|-------------------------------------------------------------------------|
E|----------------------------------------------------0--0--0--0--0--0--0--|
-
e|------19--15---------------19--15----------------------------------------|
B|--15----------17/19----15----------17/19----17b(19)p15--17---------------|
G|-------------------------------------------------------------14b(16)p12--|
D|-------------------------------------------------------------------------|
A|-------------------------------------------------------------------------|
E|-------------------------------------------------------------------------|

e|------19--15---------------19--15----------------------------------------|
B|--15----------17/19----15----------17/19------17b(19)p15--17-------------|
G|-------------------------------------------------------------------------|
D|-------------------------------------------------------------------------|
A|-------------------------------------------------------------------------|
E|-------------------------------------------------------------------------|

e|--15--12-----------------------------------------------------------------|
B|----------15--12---------------------------------------------------------|
G|------------------14--12-------------------------------------------------|
D|--------------------------14--12-----------------------------------------|
A|----------------------------------14--12---------------------------------|
E|------------------------------------------14--12-------------------------|

e|------19--15---------------19--15----------------------------------------|
B|--15----------17/19----15----------17/19------17b(19)p15--17-------------|
G|-------------------------------------------------------------------------|
D|-------------------------------------------------------------------------|
A|-------------------------------------------------------------------------|
E|-------------------------------------------------------------------------|

e|------19--15---------------19--15----------------------------------------|
B|--15----------17/19----15----------17/19------17b(19)p15--17~------------|
G|-------------------------------------------------------------------------|
D|-------------------------------------------------------------------------|
A|-------------------------------------------------------------------------|
E|-------------------------------------------------------------------------|
                                                        Enjoy...............


| /  slide up
| \  slide down
| h  hammer-on
| p  pull-off
| ~  vibra
===========================================================================
Related for Te Para Tres tab
Te Para Tres chords by Soda Stereo