Song name
# A B C D E F G H I J K L M N O P Q R S T U V W X Y Z

Soda Stereo - Tratame Suavemente tab

Help us improve GuitareTab! Take a short survey!
ACORDES:> D A C Bm7 G Em

ola... aqui les dejo la version''Ultimo Concierto''
(pooorqueeeeee)de tr@t@m su@vemehe,ojala que les guste
, viva soda nunca muere, aqui va :

Intro:

e/----------10-----------10--------10------------10-----------10-------10--|
B/-----10-----------10--------10------------10------------10-------10------|
G/--7------------7------------------------9------------9-------------------|
D/-------------------------------------------------------------------------|
A/-------------------------------------------------------------------------|
E/-------------------------------------------------------------------------|

     Esto se repite sucesivamente hasta que comienza a cantar:

Fill.1:

 D                    A             C          Bm7             A
    Alguien me ha dicho que la soledad, se esconde tras sus ojos
 D               A              C             Bm7     A
    Y que tu blusa adora sentimientos, que respiras
 D                    A               C                    Bm7       A
    Tenes que comprender que no puse tus miedos, donde estan guardados?
 D              A       C                Bm7           A
    Y que no podre quitartelos, si al hacerlo me desgarran

Fill.2:

 G               A                Fm#     Bm7
    No quiero soar mil veces las mismas cosas
 G             A          Fm#      Bm7
    Ni contemplarlas saviamente
    G      A        Fm#       Bm7
    Quiero que me trates suavemente

e/---0------------------------|
B/------0--1------------------|
G/------------0---------------|
D/---------------0------------|
A/----------------------------|
E/----------------------------|

Fill.1:

 D                     A   C                   Bm7       A
   Te comportas de acuerdo con lo que te dicta cada momento
 D              A                 C                    Bm7      A
   Y esa inconstancia no es algo ironico es mas bien algo enfermo

Fill.2:

 G               A                Fm#     Bm7
    No quiero soar mil veces las mismas cosas
 G             A          Fm#      Bm7
    Ni contemplarlas saviamente
    G      A        Fm#       Bm7
    Quiero que me trates suavemente

 Bm7 Em C x4

Solo:

e/------------------------------------------------------------|
B/---12---10--9------------12-13---15--13---11--9-------------|
G/----------------11s13----------------------------9slide-up--|
D/------------------------------------------------------------|
A/------------------------------------------------------------|
E/------------------------------------------------------------|

e/----------------------------------------------------...
B/---10---------------------------10------------------...
G/--------------------------------------------9-10s11-...
D/--------10--9--7----7-7--9--10-------7-9-10---------...
A/----------------------------------------------------...
E/----------------------------------------------------...

   Emmm... bueno ai les dejo tres cuarto del solo el resto
 llegara pronto,m por ahora sigamos con la cancion:

Fill.2:

 G               A                Fm#     Bm7
    No quiero soar mil veces las mismas cosas
 G             A          Fm#      Bm7
    Ni contemplarlas saviamente
    G      A        Fm#       Bm7
    Quiero que me trates suavemente
    G      A        Fm#       Bm7
    Quiero que me trates suavemente
    G      A        Fm#       Bm7
    Quiero que me trates suavemente

 Bm7 Em C D x3
 Bm7 Em C D  Bm7

 Ya ai esta les quedo deviendo el cuarto del solo que falta,
ojala les aya gustado comentarios o sugerencias o cualquier cosa
al mail de aca( soda92) o a m_matrix92@hotmail.com, pronto
subo un video a youtube para q entiendan mejor como se toca si es que se
complican aunque esta re claro

  a se me habia olvida do el sol y la tabien lo pueden tocar asi
excepto en el fill.1 y en la ultima frase del fill.2:

       sol y la
e/------3----5---------------------|     ok ai esta, viva soda
B/------3----5---------------------|
G/------4----6---------------------|
D/------5----7---------------------|
A/------5----7---------------------|
E/------3----5---------------------|
Related for Tratame Suavemente tab