Song name
# A B C D E F G H I J K L M N O P Q R S T U V W X Y Z

Soda Stereo - Un Misil En Mi Placard tab

Un misil en mi placard - solo
tab por Martin Rosbier

q lo disfruten, abusen de las octavas =S. Si lo ves mal, copienlo al bloc de notas y maximizalo.
                                                             
e||----------------------------|----------------------------|-------------------------------|
B||----------------------------|----------------------------|-------------------------------|
G||----------------------------|----------------------------|----------------10---9---7---9-|
D||----------------------------|----------------------------|----9----7----7----7---7---7---|
A||---------------7-----7-9--9-|---------------7-----7-9--9-|--9----9-----------------------|
E||--7-5---7-9--9----9---------|--7-5---7-9--9----9---------|-------------------------------|

                                                                     
e||-------------------------------------------|------------------------|
B||----------12--12-12-12--12-12-12-12-12-12--|--5----7----10----10----|
G||--10-11------------------------------------|------------------------|
D||--------9-9---9--9--9---9--9--9--9--9--9---|--2----4----7-----7-----|
A||-------------------------------------------|------------------------|
E||-------------------------------------------|------------------------|


                                                      
e||------------------------|----------------------------|----------------------------||
B||--5----7----12----12----|--12---12----12---12----12--|----------------------------||
G||------------------------|--9----9-----9----9-----9---|----------------------------||
D||--2----4----9-----9-----|--9----9-----9----9-----9---|----------------------------||
A||------------------------|----------------------------|----------------------------||
E||------------------------|----------------------------|--0-------------------------||

martinrosbier@hipnorama.com.ar

hipnorama.com.ar
diseņo inteligente
Tap to rate this tab
# A B C D E F G H I J K L M N O P Q R S T U V W X Y Z