Song name
# A B C D E F G H I J K L M N O P Q R S T U V W X Y Z

Soda Stereo - Zoom tab

Highlighted       Show chord diagrams
Zoom
Soda Stereo

----Intro----

|---4p0-0-0-0-5-5-4-4-0-0-4-4--12/--|
|---5---5-5-5-5-5-5-5-5-5-5-5--12/--|
|---4---4-4-4-4-4-4-4-4-4-4-4--12/--|
|-----------------------------------|
|-----------------------------------|
|-0---------------------------------| 

(second guitar can play keyboards)

E               A9/E   A9
Quiero un zoom anatomico
E                      A9/E   A9
quiero el fin del secreto
E                               F#m7      A9
entre tus labios de plata y de acero inolvidable,
E                 A9/E       A9
quiero un loop protagonico


E           A9/E   A9                      E
Eh     Pruebame y veras que todos somos adictos
         A9/E
a estos fuegos de artificio
        E
voy a hacerte un macro porno intenso 
   F#m7       A9 
lo que seduce nunca
       E 
suele estar donde se piensa

---Interludio---

|---------------|
|-9--9--9-9--9--|
|-9--9--9-9--9--|
|-9--9--9-9--9--|
|---------------|
|---------------| 

....

     E         A9/E
Zoom

---INTRO---
(Solo de teclado)

----Puente---

G#m7                   A
por aqui ya estuve te largas a re[E]ir
    G#m7           B    B4
comisuras dame un zoom   
A   F#m          E
luz,camara y accion

____________________________
E      076454
A13    x02450
A9     x02200
F#m7   2x222x
G#m7   4x444x
B4     02245x
Tap to rate this tab
 
# A B C D E F G H I J K L M N O P Q R S T U V W X Y Z