Song name
# A B C D E F G H I J K L M N O P Q R S T U V W X Y Z

Soda Stereo - Cuando Pase El Temblor Acoustic tab

Help us improve GuitareTab! Take a short survey!
Armonizado en Do Mayor
Tempo: 4/4
Beat: 94

Inicia con la batera y una pandereta

   INTRODUCCIN GUITARRA:
     Am(V)                                    G(III)
||  -5-5-X-X-5-5-X-X-5-5-X-X-5-5-X-X-|-3-3-X-X-3-3-X-X-3-3-X-X-3-3-X-X-|
||  -5-5-X-X-5-5-X-X-5-5-X-X-5-5-X-X-|-3-3-X-X-3-3-X-X-3-3-X-X-3-3-X-X-|
||O -5-5-X-X-5-5-X-X-5-5-X-X-5-5-X-X-|-4-4-X-X-4-4-X-X-4-4-X-X-4-4-X-X-|
||O -7-7-X-X-7-7-X-X-7-7-X-X-7-7-X-X-|-5-5-X-X-5-5-X-X-5-5-X-X-5-5-X-X-|
||  -7-7-X-X-7-7-X-X-7-7-X-X-7-7-X-X-|-5-5-X-X-5-5-X-X-5-5-X-X-5-5-X-X-|
||  -5-5-X-X-5-5-X-X-5-5-X-X-5-5-X-X-|-3-3-X-X-3-3-X-X-3-3-X-X-3-3-X-X-|

  F                                        Em(VII)
|-1-1-X-X-1-1-X-X-1-1-X-X-1-1-X-X-|-7-7-X-X-7-7-X-X-7-7-X-X-7-7-X-X-  ||
|-1-1-X-X-1-1-X-X-1-1-X-X-1-1-X-X-|-8-8-X-X-8-8-X-X-8-8-X-X-8-8-X-X-  ||
|-2-2-X-X-2-2-X-X-2-2-X-X-2-2-X-X-|-9-9-X-X-9-9-X-X-9-9-X-X-9-9-X-X- O||
|-3-3-X-X-3-3-X-X-3-3-X-X-3-3-X-X-|-9-9-X-X-9-9-X-X-9-9-X-X-9-9-X-X- O||
|-3-3-X-X-3-3-X-X-3-3-X-X-3-3-X-X-|-7-7-X-X-7-7-X-X-7-7-X-X-7-7-X-X-  ||
|-1-1-X-X-1-1-X-X-1-1-X-X-1-1-X-X-|-7-7-X-X-7-7-X-X-7-7-X-X-7-7-X-X-  ||x2


   VERSO 1:
   Am(V)                                   G(III)
||-5-5-X-X-5-5-X-X-5-5-X-X-5-5-X-X-|-3-3-X-X-3-3-X-X-3-3-X-X-3-3-X-X-|
||-5-5-X-X-5-5-X-X-5-5-X-X-5-5-X-X-|-3-3-X-X-3-3-X-X-3-3-X-X-3-3-X-X-|
||-5-5-X-X-5-5-X-X-5-5-X-X-5-5-X-X-|-4-4-X-X-4-4-X-X-4-4-X-X-4-4-X-X-|
||-7-7-X-X-7-7-X-X-7-7-X-X-7-7-X-X-|-5-5-X-X-5-5-X-X-5-5-X-X-5-5-X-X-|
||-7-7-X-X-7-7-X-X-7-7-X-X-7-7-X-X-|-5-5-X-X-5-5-X-X-5-5-X-X-5-5-X-X-|
||-5-5-X-X-5-5-X-X-5-5-X-X-5-5-X-X-|-3-3-X-X-3-3-X-X-3-3-X-X-3-3-X-X-|
   Yo,                               c a m i n a r   e n t r e  l a s

  F                                 Em(VII)
|-1-1-X-X-1-1-X-X-1-1-X-X-1-1-X-X-|-7-7-X-X-7-7-X-X-7-7-X-X-7-7-X-X-|
|-1-1-X-X-1-1-X-X-1-1-X-X-1-1-X-X-|-8-8-X-X-8-8-X-X-8-8-X-X-8-8-X-X-|
|-2-2-X-X-2-2-X-X-2-2-X-X-2-2-X-X-|-9-9-X-X-9-9-X-X-9-9-X-X-9-9-X-X-|
|-3-3-X-X-3-3-X-X-3-3-X-X-3-3-X-X-|-9-9-X-X-9-9-X-X-9-9-X-X-9-9-X-X-|
|-3-3-X-X-3-3-X-X-3-3-X-X-3-3-X-X-|-7-7-X-X-7-7-X-X-7-7-X-X-7-7-X-X-|
|-1-1-X-X-1-1-X-X-1-1-X-X-1-1-X-X-|-7-7-X-X-7-7-X-X-7-7-X-X-7-7-X-X-|
  p i e d r a s                     h a s t a    s e n t i r     e l

   C(VIII)
|--8--8-X-X-8--8--X-X-8--8--X-X-8--8--X-X-|
|--8--8-X-X-8--8--X-X-8--8--X-X-8--8--X-X-|
|--9--9-X-X-9--9--X-X-9--9--X-X-9--9--X-X-|
|-10-10-X-X-10-10-X-X-10-10-X-X-10-10-X-X-|
|-10-10-X-X-10-10-X-X-10-10-X-X-10-10-X-X-|
|--8--8-X-X-8--8--X-X-8--8--X-X-8--8--X-X-|
   t e m b l o r

  Cmaj7/F
|-8--8--X-X-8--8--X-X-8--8--X-X-8--8--X-X-|
|-8--8--X-X-8--8--X-X-8--8--X-X-8--8--X-X-|
|-10-10-X-X-10-10-X-X-10-10-X-X-10-10-X-X-|
|-10-10-X-X-10-10-X-X-10-10-X-X-10-10-X-X-|
|-8--8--X-X-8--8--X-X-8--8--X-X-8--8--X-X-|
|-8--8--X-X-8--8--X-X-8--8--X-X-8--8--X-X-|
                            e n  m i s

   C(VIII)
|--8--8-X-X-8--8--X-X-8--8--X-X-8--8--X-X-|
|--8--8-X-X-8--8--X-X-8--8--X-X-8--8--X-X-|
|--9--9-X-X-9--9--X-X-9--9--X-X-9--9--X-X-|
|-10-10-X-X-10-10-X-X-10-10-X-X-10-10-X-X-|
|-10-10-X-X-10-10-X-X-10-10-X-X-10-10-X-X-|
|--8--8-X-X-8--8--X-X-8--8--X-X-8--8--X-X-|
   p i e r n a s.

  Gm
|-3-3-X-X-3-3-X-X-3-3-X-X-3-3-X-X-|
|-3-3-X-X-3-3-X-X-3-3-X-X-3-3-X-X-|
|-3-3-X-X-3-3-X-X-3-3-X-X-3-3-X-X-|
|-5-5-X-X-5-5-X-X-5-5-X-X-5-5-X-X-|
|-5-5-X-X-5-5-X-X-5-5-X-X-5-5-X-X-|
|-3-3-X-X-3-3-X-X-3-3-X-X-3-3-X-X-|
            A   v e c e s   t e n-

  C7(III)                           Gm
|-3-3-X-X-3-3-X-X-3-3-X-X-3-3-X-X-|-3-3-X-X-3-3-X-X-3-3-X-X-3-3-X-X-|
|-5-5-X-X-5-5-X-X-5-5-X-X-5-5-X-X-|-3-3-X-X-3-3-X-X-3-3-X-X-3-3-X-X-|
|-3-3-X-X-3-3-X-X-3-3-X-X-3-3-X-X-|-3-3-X-X-3-3-X-X-3-3-X-X-3-3-X-X-|
|-5-5-X-X-5-5-X-X-5-5-X-X-5-5-X-X-|-5-5-X-X-5-5-X-X-5-5-X-X-5-5-X-X-|
|-3-3-X-X-3-3-X-X-3-3-X-X-3-3-X-X-|-5-5-X-X-5-5-X-X-5-5-X-X-5-5-X-X-|
|-3-3-X-X-3-3-X-X-3-3-X-X-3-3-X-X-|-3-3-X-X-3-3-X-X-3-3-X-X-3-3-X-X-|
  g o   t e m o r ,                 l o   s ,  a   v e c e s  v e r-

  D7(V)                             F(V)             B7
|-5-5-X-X-5-5-X-X-5-5-X-X-5-5-X-X-|-5-5-X-X-5-5-X-X-2-2-X-X-2-2-X-X-|
|-7-7-X-X-7-7-X-X-7-7-X-X-7-7-X-X-|-6-6-X-X-6-6-X-X-4-4-X-X-4-4-X-X-|
|-5-5-X-X-5-5-X-X-5-5-X-X-5-5-X-X-|-5-5-X-X-5-5-X-X-2-2-X-X-2-2-X-X-|
|-7-7-X-X-7-7-X-X-7-7-X-X-7-7-X-X-|-7-7-X-X-7-7-X-X-4-4-X-X-4-4-X-X-|
|-5-5-X-X-5-5-X-X-5-5-X-X-5-5-X-X-|-8-8-X-X-8-8-X-X-2-2-X-X-2-2-X-X-|
|-5-5-X-X-5-5-X-X-5-5-X-X-5-5-X-X-|-5-5-X-X-5-5-X-X-2-2-X-X-2-2-X-X-|
  g  e n z a.                      Ooooooooooooh,   ooooooooooooooh.

|-2-2-X-X-2-2-X-X-2-2-X-X-2-2-X-X-|-2-2-X-X-2-2-X-X-||
|-5-5-X-X-5-5-X-X-5-5-X-X-5-5-X-X-|-5-5-X-X-5-5-X-X-||
|-4-4-X-X-4-4-X-X-4-4-X-X-4-4-X-X-|-4-4-X-X-4-4-X-X-||
|-4-4-X-X-4-4-X-X-4-4-X-X-4-4-X-X-|-4-4-X-X-4-4-X-X-||
|-2-2-X-X-2-2-X-X-2-2-X-X-2-2-X-X-|-2-2-X-X-2-2-X-X-||
|-2-2-X-X-2-2-X-X-2-2-X-X-2-2-X-X-|-2-2-X-X-2-2-X-X-||
                                                E s-

    VERSO 2:
   Am(V)                                   G(III)
||-5-5-X-X-5-5-X-X-5-5-X-X-5-5-X-X-|-3-3-X-X-3-3-X-X-3-3-X-X-3-3-X-X-|
||-5-5-X-X-5-5-X-X-5-5-X-X-5-5-X-X-|-3-3-X-X-3-3-X-X-3-3-X-X-3-3-X-X-|
||-5-5-X-X-5-5-X-X-5-5-X-X-5-5-X-X-|-4-4-X-X-4-4-X-X-4-4-X-X-4-4-X-X-|
||-7-7-X-X-7-7-X-X-7-7-X-X-7-7-X-X-|-5-5-X-X-5-5-X-X-5-5-X-X-5-5-X-X-|
||-7-7-X-X-7-7-X-X-7-7-X-X-7-7-X-X-|-5-5-X-X-5-5-X-X-5-5-X-X-5-5-X-X-|
||-5-5-X-X-5-5-X-X-5-5-X-X-5-5-X-X-|-3-3-X-X-3-3-X-X-3-3-X-X-3-3-X-X-|
   t o y                             sentado   en  un  crter    de-

  F                                 Em(VII)
|-1-1-X-X-1-1-X-X-1-1-X-X-1-1-X-X-|-7-7-X-X-7-7-X-X-7-7-X-X-7-7-X-X-|
|-1-1-X-X-1-1-X-X-1-1-X-X-1-1-X-X-|-8-8-X-X-8-8-X-X-8-8-X-X-8-8-X-X-|
|-2-2-X-X-2-2-X-X-2-2-X-X-2-2-X-X-|-9-9-X-X-9-9-X-X-9-9-X-X-9-9-X-X-|
|-3-3-X-X-3-3-X-X-3-3-X-X-3-3-X-X-|-9-9-X-X-9-9-X-X-9-9-X-X-9-9-X-X-|
|-3-3-X-X-3-3-X-X-3-3-X-X-3-3-X-X-|-7-7-X-X-7-7-X-X-7-7-X-X-7-7-X-X-|
|-1-1-X-X-1-1-X-X-1-1-X-X-1-1-X-X-|-7-7-X-X-7-7-X-X-7-7-X-X-7-7-X-X-|
  s i e r t o,                      sigo   aguardando   e l   tem-

   C(VIII)
|--8--8-X-X-8--8--X-X-8--8--X-X-8--8--X-X-|-------------------------|
|--8--8-X-X-8--8--X-X-8--8--X-X-8--8--X-X-|-------------------------|
|--9--9-X-X-9--9--X-X-9--9--X-X-9--9--X-X-|-------------------------|
|-10-10-X-X-10-10-X-X-10-10-X-X-10-10-X-X-|-------------------------|
|-10-10-X-X-10-10-X-X-10-10-X-X-10-10-X-X-|-------------------------|
|--8--8-X-X-8--8--X-X-8--8--X-X-8--8--X-X-|-------------------------|
   b l o r,                                   e n   t u   c u e r-

   C(VIII)
|--8--8-X-X-8--8--X-X-8--8--X-X-8--8--X-X-|
|--8--8-X-X-8--8--X-X-8--8--X-X-8--8--X-X-|
|--9--9-X-X-9--9--X-X-9--9--X-X-9--9--X-X-|
|-10-10-X-X-10-10-X-X-10-10-X-X-10-10-X-X-|
|-10-10-X-X-10-10-X-X-10-10-X-X-10-10-X-X-|
|--8--8-X-X-8--8--X-X-8--8--X-X-8--8--X-X-|
   po.
  Gm
|-3-3-X-X-3-3-X-X-3-3-X-X-3-3-X-X-|
|-3-3-X-X-3-3-X-X-3-3-X-X-3-3-X-X-|
|-3-3-X-X-3-3-X-X-3-3-X-X-3-3-X-X-|
|-5-5-X-X-5-5-X-X-5-5-X-X-5-5-X-X-|
|-5-5-X-X-5-5-X-X-5-5-X-X-5-5-X-X-|
|-3-3-X-X-3-3-X-X-3-3-X-X-3-3-X-X-|
                  N a d i e   m e

  C7(III)                           Gm
|-3-3-X-X-3-3-X-X-3-3-X-X-3-3-X-X-|-3-3-X-X-3-3-X-X-3-3-X-X-3-3-X-X-|
|-5-5-X-X-5-5-X-X-5-5-X-X-5-5-X-X-|-3-3-X-X-3-3-X-X-3-3-X-X-3-3-X-X-|
|-3-3-X-X-3-3-X-X-3-3-X-X-3-3-X-X-|-3-3-X-X-3-3-X-X-3-3-X-X-3-3-X-X-|
|-5-5-X-X-5-5-X-X-5-5-X-X-5-5-X-X-|-5-5-X-X-5-5-X-X-5-5-X-X-5-5-X-X-|
|-3-3-X-X-3-3-X-X-3-3-X-X-3-3-X-X-|-5-5-X-X-5-5-X-X-5-5-X-X-5-5-X-X-|
|-3-3-X-X-3-3-X-X-3-3-X-X-3-3-X-X-|-3-3-X-X-3-3-X-X-3-3-X-X-3-3-X-X-|
  v i   p a r t i r,         l o   s ,          n a d i e  m e  e s-

  D7(V)                             F(V)             B7
|-5-5-X-X-5-5-X-X-5-5-X-X-5-5-X-X-|-5-5-X-X-5-5-X-X-2-2-X-X-2-2-X-X-|
|-7-7-X-X-7-7-X-X-7-7-X-X-7-7-X-X-|-6-6-X-X-6-6-X-X-4-4-X-X-4-4-X-X-|
|-5-5-X-X-5-5-X-X-5-5-X-X-5-5-X-X-|-5-5-X-X-5-5-X-X-2-2-X-X-2-2-X-X-|
|-7-7-X-X-7-7-X-X-7-7-X-X-7-7-X-X-|-7-7-X-X-7-7-X-X-4-4-X-X-4-4-X-X-|
|-5-5-X-X-5-5-X-X-5-5-X-X-5-5-X-X-|-8-8-X-X-8-8-X-X-2-2-X-X-2-2-X-X-|
|-5-5-X-X-5-5-X-X-5-5-X-X-5-5-X-X-|-5-5-X-X-5-5-X-X-2-2-X-X-2-2-X-X-|
  p e r a.                          Ooooooooooooh,   ooooooooooooooh.

|-2-2-X-X-2-2-X-X-2-2-X-X-2-2-X-X-|-2-2-X-X-2-2-X-X-||
|-5-5-X-X-5-5-X-X-5-5-X-X-5-5-X-X-|-5-5-X-X-5-5-X-X-||
|-4-4-X-X-4-4-X-X-4-4-X-X-4-4-X-X-|-4-4-X-X-4-4-X-X-||
|-4-4-X-X-4-4-X-X-4-4-X-X-4-4-X-X-|-4-4-X-X-4-4-X-X-||
|-2-2-X-X-2-2-X-X-2-2-X-X-2-2-X-X-|-2-2-X-X-2-2-X-X-||
|-2-2-X-X-2-2-X-X-2-2-X-X-2-2-X-X-|-2-2-X-X-2-2-X-X-||


    CORO 1:
   Esus2/Eb        C#5/G                 Dmadd9          Dm6
||-7-7-X-X-7-7-X-X-10-10-X-X-10-10-X-X-|-5-5-X-X-5-5-X-X-8-8-X-X-8-8-X-X-|
||-8-8-X-X-8-8-X-X-10-10-X-X-10-10-X-X-|-7-7-X-X-7-7-X-X-7-7-X-X-7-7-X-X-|
||-9-9-X-X-9-9-X-X--9--9-X-X--9--9-X-X-|-8-8-X-X-8-8-X-X-8-8-X-X-8-8-X-X-|
||-------------------------------------|---------------------------------|
||-------------------------------------|---------------------------------|
||-------------------------------------|---------------------------------|
   H a y     u n a    g r i e t a                      e n  m i  c o r am

  Esus2/Eb        C#5/G                 Dmadd9          Dm6
|-7-7-X-X-7-7-X-X-10-10-X-X-10-10-X-X-|-5-5-X-X-5-5-X-X-8-8-X-X-8-8-X-X-|
|-8-8-X-X-8-8-X-X-10-10-X-X-10-10-X-X-|-7-7-X-X-7-7-X-X-7-7-X-X-7-7-X-X-|
|-9-9-X-X-9-9-X-X--9--9-X-X--9--9-X-X-|-8-8-X-X-8-8-X-X-8-8-X-X-8-8-X-X-|
|-------------------------------------|---------------------------------|
|-------------------------------------|---------------------------------|
|-------------------------------------|---------------------------------|
  z  n.         U n  p l a n e     t a        c o n  d e s i l u s i  n

|-7-----------|-7------------|-7------------|-7------------|-0-----------||
|-5-----------|-7------------|-5------------|-7------------|-0-----------||
|-5-----------|-7------------|-5------------|-7------------|-2-----------||
|-5-----------|-7------------|-5------------|-7---------7/-|-3-----------||
|-0-----------|--------------|-0------------|--------------|-3-----------||
|-------------|--------------|--------------|--------------|-1-----------||

   VERSO 3:
   Am(V)                                   G(III)
||-5-5-X-X-5-5-X-X-5-5-X-X-5-5-X-X-|-3-3-X-X-3-3-X-X-3-3-X-X-3-3-X-X-|
||-5-5-X-X-5-5-X-X-5-5-X-X-5-5-X-X-|-3-3-X-X-3-3-X-X-3-3-X-X-3-3-X-X-|
||-5-5-X-X-5-5-X-X-5-5-X-X-5-5-X-X-|-4-4-X-X-4-4-X-X-4-4-X-X-4-4-X-X-|
||-7-7-X-X-7-7-X-X-7-7-X-X-7-7-X-X-|-5-5-X-X-5-5-X-X-5-5-X-X-5-5-X-X-|
||-7-7-X-X-7-7-X-X-7-7-X-X-7-7-X-X-|-5-5-X-X-5-5-X-X-5-5-X-X-5-5-X-X-|
||-5-5-X-X-5-5-X-X-5-5-X-X-5-5-X-X-|-3-3-X-X-3-3-X-X-3-3-X-X-3-3-X-X-|
   S ,                              que   te   encontrar   en   esas

  F                                 Em(VII)
|-1-1-X-X-1-1-X-X-1-1-X-X-1-1-X-X-|-7-7-X-X-7-7-X-X-7-7-X-X-7-7-X-X-|
|-1-1-X-X-1-1-X-X-1-1-X-X-1-1-X-X-|-8-8-X-X-8-8-X-X-8-8-X-X-8-8-X-X-|
|-2-2-X-X-2-2-X-X-2-2-X-X-2-2-X-X-|-9-9-X-X-9-9-X-X-9-9-X-X-9-9-X-X-|
|-3-3-X-X-3-3-X-X-3-3-X-X-3-3-X-X-|-9-9-X-X-9-9-X-X-9-9-X-X-9-9-X-X-|
|-3-3-X-X-3-3-X-X-3-3-X-X-3-3-X-X-|-7-7-X-X-7-7-X-X-7-7-X-X-7-7-X-X-|
|-1-1-X-X-1-1-X-X-1-1-X-X-1-1-X-X-|-7-7-X-X-7-7-X-X-7-7-X-X-7-7-X-X-|
  r u i n a s,                      y a n o t e n d r e m o s que ha-

   C(VIII)
|--8--8-X-X-8--8--X-X-8--8--X-X-8--8--X-X-|
|--8--8-X-X-8--8--X-X-8--8--X-X-8--8--X-X-|
|--9--9-X-X-9--9--X-X-9--9--X-X-9--9--X-X-|
|-10-10-X-X-10-10-X-X-10-10-X-X-10-10-X-X-|
|-10-10-X-X-10-10-X-X-10-10-X-X-10-10-X-X-|
|--8--8-X-X-8--8--X-X-8--8--X-X-8--8--X-X-|
   blar...

  Cmaj7/F
|-8--8--X-X-8--8--X-X-8--8--X-X-8--8--X-X-|
|-8--8--X-X-8--8--X-X-8--8--X-X-8--8--X-X-|
|-10-10-X-X-10-10-X-X-10-10-X-X-10-10-X-X-|
|-10-10-X-X-10-10-X-X-10-10-X-X-10-10-X-X-|
|-8--8--X-X-8--8--X-X-8--8--X-X-8--8--X-X-|
|-8--8--X-X-8--8--X-X-8--8--X-X-8--8--X-X-|

   C(VIII)
|--8--8-X-X-8--8--X-X-8--8--X-X-8--8--X-X-|
|--8--8-X-X-8--8--X-X-8--8--X-X-8--8--X-X-|
|--9--9-X-X-9--9--X-X-9--9--X-X-9--9--X-X-|
|-10-10-X-X-10-10-X-X-10-10-X-X-10-10-X-X-|
|-10-10-X-X-10-10-X-X-10-10-X-X-10-10-X-X-|
|--8--8-X-X-8--8--X-X-8--8--X-X-8--8--X-X-|

  Gm
|-3-3-X-X-3-3-X-X-3-3-X-X-3-3-X-X-|
|-3-3-X-X-3-3-X-X-3-3-X-X-3-3-X-X-|
|-3-3-X-X-3-3-X-X-3-3-X-X-3-3-X-X-|
|-5-5-X-X-5-5-X-X-5-5-X-X-5-5-X-X-|
|-5-5-X-X-5-5-X-X-5-5-X-X-5-5-X-X-|
|-3-3-X-X-3-3-X-X-3-3-X-X-3-3-X-X-|
                  T e     b e s am

  C7(III)                           Gm
|-3-3-X-X-3-3-X-X-3-3-X-X-3-3-X-X-|-3-3-X-X-3-3-X-X-3-3-X-X-3-3-X-X-|
|-5-5-X-X-5-5-X-X-5-5-X-X-5-5-X-X-|-3-3-X-X-3-3-X-X-3-3-X-X-3-3-X-X-|
|-3-3-X-X-3-3-X-X-3-3-X-X-3-3-X-X-|-3-3-X-X-3-3-X-X-3-3-X-X-3-3-X-X-|
|-5-5-X-X-5-5-X-X-5-5-X-X-5-5-X-X-|-5-5-X-X-5-5-X-X-5-5-X-X-5-5-X-X-|
|-3-3-X-X-3-3-X-X-3-3-X-X-3-3-X-X-|-5-5-X-X-5-5-X-X-5-5-X-X-5-5-X-X-|
|-3-3-X-X-3-3-X-X-3-3-X-X-3-3-X-X-|-3-3-X-X-3-3-X-X-3-3-X-X-3-3-X-X-|
  r  e n  e l  t e m b l o r, lo   s,             s e r     u n

  D7(V)                             F(V)             B7
|-5-5-X-X-5-5-X-X-5-5-X-X-5-5-X-X-|-5-5-X-X-5-5-X-X-2-2-X-X-2-2-X-X-|
|-7-7-X-X-7-7-X-X-7-7-X-X-7-7-X-X-|-6-6-X-X-6-6-X-X-4-4-X-X-4-4-X-X-|
|-5-5-X-X-5-5-X-X-5-5-X-X-5-5-X-X-|-5-5-X-X-5-5-X-X-2-2-X-X-2-2-X-X-|
|-7-7-X-X-7-7-X-X-7-7-X-X-7-7-X-X-|-7-7-X-X-7-7-X-X-4-4-X-X-4-4-X-X-|
|-5-5-X-X-5-5-X-X-5-5-X-X-5-5-X-X-|-8-8-X-X-8-8-X-X-2-2-X-X-2-2-X-X-|
|-5-5-X-X-5-5-X-X-5-5-X-X-5-5-X-X-|-5-5-X-X-5-5-X-X-2-2-X-X-2-2-X-X-|
  b  u  e  n     m o m e n t o.

    CORO 2:
   Esus2/Eb        C#5/G                 Dmadd9          Dm6
||-7-7-X-X-7-7-X-X-10-10-X-X-10-10-X-X-|-5-5-X-X-5-5-X-X-8-8-X-X-8-8-X-X-|
||-8-8-X-X-8-8-X-X-10-10-X-X-10-10-X-X-|-7-7-X-X-7-7-X-X-7-7-X-X-7-7-X-X-|
||-9-9-X-X-9-9-X-X--9--9-X-X--9--9-X-X-|-8-8-X-X-8-8-X-X-8-8-X-X-8-8-X-X-|
||-------------------------------------|---------------------------------|
||-------------------------------------|---------------------------------|
||-------------------------------------|---------------------------------|

   Esus2/Eb        C#5/G                 Dmadd9          Dm6
||-7-7-X-X-7-7-X-X-10-10-X-X-10-10-X-X-|-5-5-X-X-5-5-X-X-8-8-X-X-8-8-X-X-|
||-8-8-X-X-8-8-X-X-10-10-X-X-10-10-X-X-|-7-7-X-X-7-7-X-X-7-7-X-X-7-7-X-X-|
||-9-9-X-X-9-9-X-X--9--9-X-X--9--9-X-X-|-8-8-X-X-8-8-X-X-8-8-X-X-8-8-X-X-|
||-------------------------------------|---------------------------------|
||-------------------------------------|---------------------------------|
||-------------------------------------|---------------------------------|

|-7------10/12-|-7------------|-7------10/12-|-7-----------|-0-----------||
|-5------------|-7------------|-5------------|-7-----------|-0-----------||
|-5------------|-7------------|-5------------|-7-----------|-2-----------||
|-5------------|-7------------|-5------------|-7--------7/-|-3-----------||
|-0------------|--------------|-0------------|-------------|-3-----------||
|--------------|--------------|--------------|-------------|-1-----------||
                            Con desilusin...

    PUENTE:
   Am(V)                                   G(III)
||-5-5-X-X-5-5-X-X-5-5-X-X-5-5-X-X-|-3-3-X-X-3-3-X-X-3-3-X-X-3-3-X-X-|
||-5-5-X-X-5-5-X-X-5-5-X-X-5-5-X-X-|-3-3-X-X-3-3-X-X-3-3-X-X-3-3-X-X-|
||-5-5-X-X-5-5-X-X-5-5-X-X-5-5-X-X-|-4-4-X-X-4-4-X-X-4-4-X-X-4-4-X-X-|
||-7-7-X-X-7-7-X-X-7-7-X-X-7-7-X-X-|-5-5-X-X-5-5-X-X-5-5-X-X-5-5-X-X-|
||-7-7-X-X-7-7-X-X-7-7-X-X-7-7-X-X-|-5-5-X-X-5-5-X-X-5-5-X-X-5-5-X-X-|
||-5-5-X-X-5-5-X-X-5-5-X-X-5-5-X-X-|-3-3-X-X-3-3-X-X-3-3-X-X-3-3-X-X-|
                                   O h,  o h,  o h,  o h,  o h,  o h,

  F                                 Em(VII)
|-1-1-X-X-1-1-X-X-1-1-X-X-1-1-X-X-|-7-7-X-X-7-7-X-X-7-7-X-X-7-7-X-X-|
|-1-1-X-X-1-1-X-X-1-1-X-X-1-1-X-X-|-8-8-X-X-8-8-X-X-8-8-X-X-8-8-X-X-|
|-2-2-X-X-2-2-X-X-2-2-X-X-2-2-X-X-|-9-9-X-X-9-9-X-X-9-9-X-X-9-9-X-X-|
|-3-3-X-X-3-3-X-X-3-3-X-X-3-3-X-X-|-9-9-X-X-9-9-X-X-9-9-X-X-9-9-X-X-|
|-3-3-X-X-3-3-X-X-3-3-X-X-3-3-X-X-|-7-7-X-X-7-7-X-X-7-7-X-X-7-7-X-X-|
|-1-1-X-X-1-1-X-X-1-1-X-X-1-1-X-X-|-7-7-X-X-7-7-X-X-7-7-X-X-7-7-X-X-|
  o h,                             o h,  o h,  o h,  o h,  e l t e m-

   C(VIII)
|--8--8--X-X--8--8--X-X--8--8--X-X--8--8--X-X-||
|--8--8--X-X--8--8--X-X--8--8--X-X--8--8--X-X-||
|--9--9--X-X--9--9--X-X--9--9--X-X--9--9--X-X-||
|-10-10--X-X-10-10--X-X-10-10--X-X-10-10--X-X-||
|-10-10--X-X-10-10--X-X-10-10--X-X-10-10--X-X-||
|--8--8--X-X--8--8--X-X--8--8--X-X--8--8--X-X-||
     b l o r.                  D e s p i  r-

    CORO FINAL:
     Dm(X)               A#(VI)
||  -10-10-X-X-10-10-X-X-6-6-X-X-6-6-X-X-|
||  -10-10-X-X-10-10-X-X-6-6-X-X-6-6-X-X-|
||O -10-10-X-X-11-11-X-X-7-7-X-X-7-7-X-X-|
||O -12-12-X-X-12-12-X-X-8-8-X-X-8-8-X-X-|
||  -12-12-X-X-12-12-X-X-8-8-X-X-8-8-X-X-|
||  -10-10-X-X-10-10-X-X-6-6-X-X-6-6-X-X-|
        t a a a a a a a a a a a m e

   C(VIII)
|--8--8--X-X--8--8--X-X--8--8--X-X--8--8--X-X-  ||
|--8--8--X-X--8--8--X-X--8--8--X-X--8--8--X-X-  ||
|--9--9--X-X--9--9--X-X--9--9--X-X--9--9--X-X- O||
|-10-10--X-X-10-10--X-X-10-10--X-X-10-10--X-X- O||
|-10-10--X-X-10-10--X-X-10-10--X-X-10-10--X-X-  ||
|--8--8--X-X--8--8--X-X--8--8--X-X--8--8--X-X-  ||X4
                             d e s p i  r -

    FINAL:
     C/E
||  -8-8-X-X-8-8-X-X-8-8-X-X-8-8-X-X-  ||
||  -8-8-X-X-8-8-X-X-8-8-X-X-8-8-X-X-  ||
||O -9-9-X-X-9-9-X-X-9-9-X-X-9-9-X-X- O||
||O --------------------------------- O||
||  ---------------------------------  ||
||  ---------------------------------  ||X3

|-8-8-X-X-8-8-X-X-8-8-X-10-10-X-12-X-X-10-|
|-8-8-X-X-8-8-X-X-8-8-X-8--8--X-10-X-X-8--|
|-9-9-X-X-9-9-X-X-9-9-X-10-10-X-12-X-X-10-|
|-----------------------------------------|
|-----------------------------------------|
|-----------------------------------------|

||  -8-8-X-X-8-8-X-X-8-8-X-X-8-8-X-X-  ||
||  -8-8-X-X-8-8-X-X-8-8-X-X-8-8-X-X-  ||
||O -9-9-X-X-9-9-X-X-9-9-X-X-9-9-X-X- O||
||O --------------------------------- O||
||  ---------------------------------  ||
||  ---------------------------------  ||X7

|-8-8-X-X-10-10-X-12-X-10-X-10-10-X-12-X-10-X-|
|-8-8-X-X-8--8--X-10-X-8--X-8--8--X-10-X-8--X-|
|-9-9-X-X-10-10-X-12-X-10-X-10-10-X-12-X-10-X-|
|---------------------------------------------|
|---------------------------------------------|
|---------------------------------------------|

||  -8-8-X-X-8-8-X-X-8-8-X-X-8-8-X-X-  ||
||  -8-8-X-X-8-8-X-X-8-8-X-X-8-8-X-X-  ||
||O -9-9-X-X-9-9-X-X-9-9-X-X-9-9-X-X- O||
||O --------------------------------- O||
||  ---------------------------------  ||
||  ---------------------------------  ||X7

|-8-8-X-X-8-8-X-X-8-8-X-10-10-X-X-5-5-X-X-|
|-8-8-X-X-8-8-X-X-8-8-X-10-10-X-X-7-7-X-X-|
|-9-9-X-X-9-9-X-X-9-9-X-9--9--X-X-8-8-X-X-|
|-----------------------------------------|
|-----------------------------------------|
|-----------------------------------------|

    Am(V)
|| -5-5-X-X-5-5-X-X-5-5-X-X-5-5-X-X- ||
|| -5-5-X-X-5-5-X-X-5-5-X-X-5-5-X-X- ||
||O-5-5-X-X-5-5-X-X-5-5-X-X-5-5-X-X-O||
||O-7-7-X-X-7-7-X-X-7-7-X-X-7-7-X-X-O||
|| -7-7-X-X-7-7-X-X-7-7-X-X-7-7-X-X- ||
|| -5-5-X-X-5-5-X-X-5-5-X-X-5-5-X-X- ||X8

  D7(V)               Am(V)
|-5-5-5-5-5-5-5-5-X-X-5-5-X-X-5-5-X-X-5-5-X-X-|
|-7-7-7-7-7-7-7-7-X-X-5-5-X-X-5-5-X-X-5-5-X-X-|
|-5-5-5-5-5-5-5-5-X-X-5-5-X-X-5-5-X-X-5-5-X-X-|
|-7-7-7-7-7-7-7-7-X-X-7-7-X-X-7-7-X-X-7-7-X-X-|
|-5-5-5-5-5-5-5-5-X-X-7-7-X-X-7-7-X-X-7-7-X-X-|
|-5-5-5-5-5-5-5-5-X-X-5-5-X-X-5-5-X-X-5-5-X-X-|

        Am(V)
||  -5-5-X-X-5-5-X-X-5-5-X-X-5-5-X-X-  ||   |-5------------------||
||  -5-5-X-X-5-5-X-X-5-5-X-X-5-5-X-X-  ||   |-5------------------||
||O -5-5-X-X-5-5-X-X-5-5-X-X-5-5-X-X- O||   |-5------------------||
||O -7-7-X-X-7-7-X-X-7-7-X-X-7-7-X-X- O||   |-7------------------||
||  -7-7-X-X-7-7-X-X-7-7-X-X-7-7-X-X-  ||   |--------------------||
||  -5-5-X-X-5-5-X-X-5-5-X-X-5-5-X-X-  ||X5 |--------------------||
           C u a n d o  p a s e  e l  t e m b l o r


      ***Aqu termina la cancin, luego Cerati agrega esto:***

||  --------------------------  ||   |-5-----5-7-----7-8-8-8-8--5-5--5-3-|
||  ---5--5--5--5--5--5--5--5-  ||   |-5-5-----5-5-----5-5-5-5--5-5--5-3-|
||O -7--6--5--6--6--7--6--5--- O||   |-5---5---5---5---5-5-5-5--5-5--5-3-|
||O -------------------------- O||   |-7-------6-------5-5-5-5--5-5--6-4-|
||  --------------------------  ||   |-----------------------------------|
||  --------------------------  ||X2 |-----------------------------------|
Related for Cuando Pase El Temblor Acoustic tab