Song name
# A B C D E F G H I J K L M N O P Q R S T U V W X Y Z

Soda Stereo - Angel Elctrico tab

SODA STEREO
ANGEL ELECTRICO - SUEÑO STEREO (1995)
La afinacion es la standar, he encontrado en internet distintos tabs de la versión del 
asi que voy a tabular la versión original de sueño stereo, para los que la prefieran.

INTRO
La cancion empieza con un sample, supongo que es obra de Tweety.
Gustavo usa un pedal de expresion para manejar el volumen dandole efecto de vaiven al 
con el sintetizador de fondo.
(con distorsion, reverb y flanger)
E|-2-2-2-2-2-2-2-2-2-2-|
B|-3-3-3-3-3-3-3-3-3-3-|
G|-2-2-2-2-2-2-2-2-2-2-|
D|-0-0-0-0-0-0-0-0-0-0-|
A|-0-0-0-0-0-0-0-0-0-0-|
E|---------------------|

riff 1 (este riff se usa entre estrofas y solo luego de la segunda con tremolo y wah)

E|-2-2-2-0~--3-2-0~--|
B|-3-3-3-3~--3-3-3~--|
G|-2-2-2-2~--2-2-0~--|
D|-0-0-0-0~--0-0-x---|
A|---------------2~--|
E|--------------(3)--|

VERSO
estos son los acordes
E|-(8)-7--5--3--5--7--5--3-|
B|--6--8--6--4--6--8--6--4-|
G|--5--7--5--3--5--7--5--3-|
D|-------------------------|
A|-------------------------|
E|-------------------------|

BREAK ("Un nuevo acorde te hace mirarme a los ojos...")

E|-5-5-5-5-5-5-5-5-|
B|-5-5-5-5-7-7-7-7-|
G|-5-5-5-5-7-7-7-7-|
D|-7-7-7-7-7-7-7-7-|
A|-7-7-7-7-5-5-5-5-|
E|-5-5-5-5-5-5-5-5-|

-("Hoy cai al dejarte sola...")

E|-3-3-3-3-1-1-1-1-||-3-3-3-3-3-3-3-3-|
B|-3-3-3-3-1-1-1-1-||-3-3-3-3-3-3-3-3-|
G|-4-4-4-4-2-2-2-2-||-4-4-4-4-4-4-4-4-|
D|-5-5-5-5-3-3-3-3-||-5-5-5-5-5-5-5-5-|
A|-5-5-5-5-3-3-3-3-||-5-5-5-5-5-5-5-5-|
E|-3-3-3-3-1-1-1-1-||-3-3-3-3-3-3-3-3-|

FINAL

E|-(8)-(8)-(8)-(8)-2-2-2-2~~~ESTO SE CONVIERTE------|
B|--6---6---6---6--3-3-3-3~~~EN FEEDBACK (CON-------|
G|--5---5---5---5--2-2-2-2~~~TODOS LOS EFECTOS------|
D|-----------------0-0-0-0~~~MENCIONADOS) AL FINAL--|
A|-----------------0-0-0-0~~~DE LA CANCIÓN----------|
E|--------------------------------------------------|
Tap to rate this tab
# A B C D E F G H I J K L M N O P Q R S T U V W X Y Z