Song name
# A B C D E F G H I J K L M N O P Q R S T U V W X Y Z

Soda Stereo - Angel Electrico tab

Soda Stereo
Angel Electrico - Suenyo Stereo (1995)

La afinación es la standar, he encontrado en internet distintos tabs de la version del 
asi que voy

a tabular la version original de suenyo stereo, que es un tanto complicada por la 
de arreglos y

efectos que se usan pero voy a hacer lo mejor para los que la prefieran como yo.

Intro (distorsion/reverb/flanger)
La canción empieza con un sampler, supongo que es obra de Tweety.
Gustavo usa un pedal de expresión para manejar el volumen dandole efecto de vaiven al 
con el

sintetizador de fondo.

E|-2-2-2-2-2-2-2-2-2-2-|
B|-3-3-3-3-3-3-3-3-3-3-|
G|-2-2-2-2-2-2-2-2-2-2-|
D|-0-0-0-0-0-0-0-0-0-0-|
A|-0-0-0-0-0-0-0-0-0-0-|
E|---------------------|

riff 1 (este riff se usa entre estrofas y solo luego de la segunda con tremolo y wah)

E|-2-2-2-0~--3-2-0~--|
B|-3-3-3-3~--3-3-3~--|
G|-2-2-2-2~--2-2-0~--|
D|-0-0-0-0~--0-0-x---|
A|---------------2~--|
E|--------------(3)--|

Verso

estos son los acordes
E|-(8)-7--5--3--5--7--5--3-|
B|--6--8--6--4--6--8--6--4-|
G|--5--7--5--3--5--7--5--3-|
D|-------------------------|
A|-------------------------|
E|-------------------------|

Break ("Un nuevo acorde te hace mirarme a los ojos...")

E|-5-5-5-5-5-5-5-5-5-5-5-5-5-5-5-5-|
B|-5-5-5-5-5-5-5-5-7-7-7-7-7-7-7-7-|
G|-5-5-5-5-5-5-5-5-7-7-7-7-7-7-7-7-|
D|-7-7-7-7-7-7-7-7-7-7-7-7-7-7-7-7-|
A|-7-7-7-7-7-7-7-5-5-5-5-5-5-5-5-5-|
E|-5-5-5-5-5-5-5-5-5-5-5-5-5-5-5-5-|

-("Hoy caí al dejarte sola...")

E|-3-3-3-3-3-3-3-3-1-1-1-1-1-1-1-1-||-3-3-3-3-3-3-3-3-3-3-3-3-3-3-3-3-|
B|-3-3-3-3-3-3-3-3-1-1-1-1-1-1-1-1-||-3-3-3-3-3-3-3-3-3-3-3-3-3-3-3-3-|
G|-4-4-4-4-4-4-4-4-2-2-2-2-2-2-2-2-||-4-4-4-4-4-4-4-4-4-4-4-4-4-4-4-4-|
D|-5-5-5-5-5-5-5-5-3-3-3-3-3-3-3-3-||-5-5-5-5-5-5-5-5-5-5-5-5-5-5-5-5-|
A|-5-5-5-5-5-5-5-5-3-3-3-3-3-3-3-3-||-5-5-5-5-5-5-5-5-5-5-5-5-5-5-5-5-|
E|-3-3-3-3-3-3-3-3-1-1-1-1-1-1-1-1-||-3-3-3-3-3-3-3-3-3-3-3-3-3-3-3-3-|

Final

E|-(8)-(8)-(8)-(8)-2-2-2-2~~~-|
B|--6---6---6---6--3-3-3-3~~~-|
G|--5---5---5---5--2-2-2-2~~~-|
D|-----------------0-0-0-0~~~-|
A|-----------------0-0-0-0~~~-|
E|----------------------------|

PORFAVOR CALIFIQUEN
Cualquier correccion mandamen un corre: bizkornotem@hotmail.com
Tap to rate this tab
 
# A B C D E F G H I J K L M N O P Q R S T U V W X Y Z