Song name
# A B C D E F G H I J K L M N O P Q R S T U V W X Y Z

Soda Stereo - Signos Live tab

                        Soda Stereo

                           Signos 

                            By 

                      Cheuken (el finito) Valdez





(Guitar 2)
Normal tuning

Plays from 1:28 to 1:57, from 2:06 to 2:20, from 2:44 to 3:13, from 3:22 to 3:37.

-----------------------------------------------------------------------------------|
-----------------------------------------------------------------------------------|
-----5---------5----------9----------9----------7----------7---------5---------5---|
---7---7-----7---7------9---9------9---9------9---9------9---9-----7---7-----7---7-|
-7---------7---------10---------10---------10---------10---------8---------8------|
-----------------------------------------------------------------------------------|



-----------------------------------------------------------------------------------------------|
-----------------------------------------------------------------------------------------------|
-----5---------5---------9---------9----------12-----------12-----------10-------------10------|
---7---7-----7---7-----9---9-----9---9-----12----12-----12----12-----12----12-------12----12---|
-7---------7---------10--------10--------13-----------13-----------12------------12------------|
-----------------------------------------------------------------------------------------------|





(Guitar 1)

Normal tuning


0:20

e---8--7h8p7---------------5-5-5\0------------|
B-----------------8--5--8---------------------|
G---------------------------------------------|
D---------------------------------------------|
A---------------------------------------------|
E---------------------------------------------|



0:28

-------12-12-12------12-10--------------------|
----10----------------------13--10-12-13------|
----------------------------------------------|
----------------------------------------------|
----------------------------------------------|
----------------------------------------------|



----10-11-12----------------------------------|
---------------10-10-10-10-10\0---------------|
----------------------------------------------|
----------------------------------------------|
----------------------------------------------|
----------------------------------------------|



0:39

----------------------------------------------|
--------3-4-5---4--3--------------------------|
----2-5-------------------5r4---2--5~~~\0-----|
----------------------------------------------|
----------------------------------------------|
----------------------------------------------|



0:49

----------15-----14-12---------------------------3h5-5~~~~\0-|
----12h13--------------15-13-12-12h13p12-10-8-5--------------|
-------------------------------------------------------------|
-------------------------------------------------------------|
-------------------------------------------------------------|
-------------------------------------------------------------|



0:57

----------------------------------------------3-2-0--8-7-5-3-2-0-----------|
--------------------1-3-1---------------1-3-1--------------------3-1-0-----|
----2-2-2-2-2-2-2-2-------2-2-2-2-2-2-2--------------------------------0-2-|
---------------------------------------------------------------------------|
---------------------------------------------------------------------------|
---------------------------------------------------------------------------|




---------------------------------------------3-2-0--8-7-10-8-12-10-14-12-15\0-|
--------------------1-3-1---------------1-3-1---------------------------------|
----2-2-2-2-2-2-2-2-------2-2-2-2-2-2-2---------------------------------------|
------------------------------------------------------------------------------|
------------------------------------------------------------------------------|
------------------------------------------------------------------------------|



1:12

----------------------------------------------3-2-0--8-7-8-7-5-3-2-0-------|
--------------------1-3-1---------------1-3-1------------------------3-----|
----2-2-2-2-2-2-2-2-------2-2-2-2-2-2-2--------------------------------0-2-|
---------------------------------------------------------------------------|
---------------------------------------------------------------------------|
---------------------------------------------------------------------------|




---------------------------------------------3-2-0--8-7-10-8-12-10-14-12-15\0-|
--------------------1-3-1---------------1-3-1---------------------------------|
----2-2-2-2-2-2-2-2-------2-2-2-2-2-2-2---------------------------------------|
------------------------------------------------------------------------------|
------------------------------------------------------------------------------|
------------------------------------------------------------------------------|




1:29

-----------15~~~-----------------12-13-12~-------------------------------------|
---12-13-----------12--13-12--10-------------12-13-15-13-12---8/10-------------|
------------------------------------------------------------------------12-10-9|
-------------------------------------------------------------------------------|
-------------------------------------------------------------------------------|
-------------------------------------------------------------------------------|



1:45

---------------------------------------------|
----12-13------------------------------------|
----------12---------------------------------|
-------------14-12---------------------------|
---------------------------------------------|
---------------------------------------------|



1:52

---------------------------------------------|
----12-13--15-13--8/11-----------------------|
---------------------------------------------|
---------------------------------------------|
---------------------------------------------|
---------------------------------------------|



1:58

--0-----5----3-------------------------------|
--1------------------------------------------|
--2------------------------------------------|
--2------------------------------------------|
---------------------------------------------|
---------------------------------------------|



2:04

---------------------------------------------|
----8/10---10/13\0---------------------------|
---------------------------------------------|
---------------------------------------------|
---------------------------------------------|
---------------------------------------------|



2:16

---------------------------------------------|
----12-13-15-13---8/11-----------------------|
---------------------------------------------|
---------------------------------------------|
---------------------------------------------|
---------------------------------------------|



2:21 (Guitar 2)


Am    D        E----0-2-3--|
   Signos      B--0--------|

Am             D  C
mi parte insegura

Am       D
bajo una luna hostil

Am       D    C
Signos, oh




(Guitar 1)

2:24

---------------------------------------------|
------9--11/12-12----------------------------|
---7-----------------------------------------|
---------------------------------------------|
---------------------------------------------|
---------------------------------------------|



2:36

----------3----------------------------------|
---1--0--------1---0--3----------------------|
-0------0----0-------------------------------|
---------------------------------------------|
---------------------------------------------|
---------------------------------------------|



----------3----------------------------------|
---1--0--------1---0--2----------------------|
-0------0----0-------------------------------|
---------------------------------------------|
---------------------------------------------|
---------------------------------------------|



2:45

----------15~~~---------------12-13-12-------|
---12-13-----------12-13-12-10---------------|
---------------------------------------------|
---------------------------------------------|
---------------------------------------------|
---------------------------------------------|



---------------------------------------------|
----12-13-15-13-12---8/10--------------------|
--------------------------12-10-9------------|
---------------------------------------------|
---------------------------------------------|
---------------------------------------------|



3:01

---------------------------------------------|
----12-13------------------------------------|
----------12---------------------------------|
-------------14-12---------------------------|
---------------------------------------------|
---------------------------------------------|


3:09

---------------------------------------------|
----12-13--15-13--8/11-----------------------|
---------------------------------------------|
---------------------------------------------|
---------------------------------------------|
---------------------------------------------|



3:20

---------------------------------------------|
----8/10---10/13\0---------------------------|
---------------------------------------------|
---------------------------------------------|
---------------------------------------------|
---------------------------------------------|



3:24

---------------------------------------------|
----12-13------------------------------------|
----------12---------------------------------|
-------------14-12---------------------------|
---------------------------------------------|
---------------------------------------------|



3:32

---------------------------------------------|
----12-13--15-13--8/11-----------------------|
---------------------------------------------|
---------------------------------------------|
---------------------------------------------|
---------------------------------------------|


Chorus

3:37 (Guitar 2)

Am    D        E----0-2-3--|
   Signos      B--0--------|

Am             D  C
mi parte insegura

Am       D
bajo una luna hostil

Am       D    C
Signos, oh

Am    D        E----0-2-3--|
   Signos      B--0--------|

Am             D  C
uniendo fisuras 


Am       D
figuras sin definir

Am     D    C
signos ohhh oh ohhhh






4:08

----------3----------------------------------|
---1--0--------1---0--3----------------------|
-0------0----0-------------------------------|
---------------------------------------------|
---------------------------------------------|
---------------------------------------------|



----------3----------------------------------|
---1--0--------1---0--2----------------------|
-0------0----0-------------------------------|
---------------------------------------------|
---------------------------------------------|
---------------------------------------------|



4:15

---------8----7----7------------8----10/12\0-|
------10---10---10---10------10---10---------|
----9----------------------9-----------------|
---------------------------------------------|
---------------------------------------------|
---------------------------------------------|



4:19

---------8----7----7------------8----10/12\0-|
------10---10---10---10------10---10---------|
----9----------------------9-----------------|
---------------------------------------------|
---------------------------------------------|
---------------------------------------------|




4:23 (Guitar 2)

--5--x4----4--x4----5--x4-----8--x4---3------|
--6--x4----6--x4----6--x4-----6--x4---5------|
--7--x4----7--x4----7--x4-----7--x4---5------|
--------------------------------------5------|
--------------------------------------3------|
--------------------------------------3------|



---3-------3-------3-------------------------|
-----1-------1--------1----------------------|
-------2-------2--------2--------------------|
---------------------------------------------|
---------------------------------------------|
---------------------------------------------|



4:30

--5--x4----4--x4----5--x4-----8--x4---x------|
--6--x4----6--x4----6--x4-----6--x4---5------|
--7--x4----7--x4----7--x4-----7--x4---5------|
--------------------------------------7------|
---------------------------------------------|
---------------------------------------------|



---3-------3-------3-------------------------|
-----1-------1--------1----------------------|
-------2-------2--------2--------------------|
---------------------------------------------|
---------------------------------------------|
---------------------------------------------|




4:38

--5--x4----4--x4----5--x4-----8--x4----------|
--6--x4----6--x4----6--x4-----6--x4----------|
--7--x4----7--x4----7--x4-----7--x4----------|
---------------------------------------------|
---------------------------------------------|
---------------------------------------------|




4:24 (Guitar 1)

---------20----------------------------------|
---17-18-------------------------------------|
---------------------------------------------|
---------------------------------------------|
---------------------------------------------|
---------------------------------------------|




4:29

--23-21-20-17--------------20----------------|
---------------------17-18-------------------|
---------------------------------------------|
---------------------------------------------|
---------------------------------------------|
---------------------------------------------|



4:36

--23-21-19-22---------------20---------------|
----------------------17-18------------------|
---------------------------------------------|
---------------------------------------------|
---------------------------------------------|
---------------------------------------------|



4:42

---0------0------0------0------10-----13-----16|
----1------1------1------1---------------------|
-2------2------2------2------10-----13-----16--|
2------2------2------2------9-----12-----15----|
-----------------------------------------------|
-----------------------------------------------|





Chorus

4:50 (Guitar 2)

Am    D        E----0-2-3--|
   Signos      B--0--------|

Am             D  C
mi parte insegura

Am       D
bajo una luna hostil

Am       D    C
Signos, oh

Am    D        E----0-2-3--|
   Signos      B--0--------|

Am             D  C
uniendo fisuras eh


Am       D
figuras sin definir

Am     D      C
signos ohhh yeah


(Continue until 5:35)


(Starts again at 5:51 and goes until the end)




5:20

---------------------------------------------|
----13--12------------------13--12-----------|
------------12--14------------------12--11---|
---------------------------------------------|
---------------------------------------------|
---------------------------------------------|



5:28

-------------------------10------------------|
----13--12------------------13--12\10--12----|
------------12--14---------------------------|
---------------------------------------------|
---------------------------------------------|
---------------------------------------------|




5:35

---------------------------------------------|
----13--12------------------13--12---------12|
------------12--14------------------12--14---|
---------------------------------------------|
---------------------------------------------|
---------------------------------------------|



5:43

-------------------------10------------------|
----13--12------------------13--12\10--12----|
------------12--14---------------------------|
---------------------------------------------|
---------------------------------------------|
---------------------------------------------|




5:50

---------------------------------------------|
----13--12------------------13--12---------12|
------------12--14------------------12--14---|
---------------------------------------------|
---------------------------------------------|
---------------------------------------------|




5:58

-------------------------10------------------|
----13--12------------------13--12\10--12----|
------------12--14---------------------------|
---------------------------------------------|
---------------------------------------------|
---------------------------------------------|



---------------------------------------------|
---12~~~~~~~~~~------------------------------|
---------------------------------------------|
---------------------------------------------|
---------------------------------------------|
---------------------------------------------|


Fin

Pos ahi quedo, dedicada a Xochiquetzal...

Comentarios a: hectorbarrerav@hotmail.com

Oraleeeeeeeeeeeeeeeeeeee…
Tap to rate this tab
 
# A B C D E F G H I J K L M N O P Q R S T U V W X Y Z