Song name
# A B C D E F G H I J K L M N O P Q R S T U V W X Y Z

Soda Stereo - Un Millon De Aos Luz tab

---------11--12--14--14--14--14--16--14----------------|
---12-----------------------------------17--16--17--17-|
-------------------------------------------------------|
-------------------------------------------------------|
-------------------------------------------------------|
-------------------------------------------------------|

--------14------------16--16b--14--14--16--16b--14--14-|
--16-17---16-16-14-16----------------------------------|
-------------------------------------------------------|
-------------------------------------------------------|
-------------------------------------------------------|
-------------------------------------------------------|

16-16b-14-14-12-12-12-12-11-12-14-12-12-11-11-11b-11--|
------------------------------------------------------|
------------------------------------------------------|
------------------------------------------------------|
------------------------------------------------------|
------------------------------------------------------|

-9-9-9-9-----9---12--9-11-9------9-12-9-11-9----------|
----------12----------------10---------------10-------|
------------------------------------------------------|
------------------------------------------------------|
------------------------------------------------------|
------------------------------------------------------|

--9---------11-11--------9-9---------9---------------9-|
-----12-12--------10-10--------12-10---10-12b--10-12---|
-------------------------------------------------------|
-------------------------------------------------------|
-------------------------------------------------------|
-------------------------------------------------------|

-------------9----------------------------------------|
-10-12-10-12---10-12b-10-10-10-9-9-9-7-9-7-7---7-9----|
---------------------------------------------9--------|
------------------------------------------------------|
------------------------------------------------------|
------------------------------------------------------|
Tap to rate this tab
 
# A B C D E F G H I J K L M N O P Q R S T U V W X Y Z