Song name
# A B C D E F G H I J K L M N O P Q R S T U V W X Y Z

Soda Stereo - Disco Eterno tab

disco eterno

esta es mi version de la cancion me parecio q las otras versiones estan algo
flojas espero q les guste ,porfavor escuchen la cancion mientras la se la aprenden
en guitarra , y toquenla para poder sacar el ritmo, asi desarrollan oido y ritmica .
soda estreo buenos aires argentina

NOTAS
D9    = 000230
Fmaj7 = 033210
C9    = 032030
G6    = 320000
A6    = 002200

slide= /
pull of= p ( en en el caso del intro se toca de 5 a 3 0 sin tocar con la pua)
bending = b

intro del intro xD  con algun efecto q se repita el sonido

  e|--------3/5----8/7----|]
  B|----------------------|]
  G|----------------------|]
  D|----------------------|]
  A|----------------------|]
  E|----------------------|]

intro

riff 1º
 e|----------------------------------------------------|
 B|----------------------------------------------------|
 G|---------------------5-4--4------------------2-0-0--|
 D|-----3-3-----------------------3--3/5b-3-3/5--------|
 A|--3/5-------5.3.0p----------3/5---------------------|
 E|-------------------------------------------------x2-|
fin del riff 1º para ir al rif 2º
  e|---------------------------------------|]
  B|---------------------------------------|]
  G|---------------------------------------|]
  D|-----3---5-3p-5-3p-5-3p---5-3----------|]
  A|-3/5-------------------------5-3-3/5---|]
  E|---------------------------------------|]


riff 2º

 e|-----------------------5-5----------------------------|]
 B|--6-5-3-5-3-------------------------------------------|]
 G|-------------4-4-4-4/5--5--5-5-5/7-5-4-0--------------|]
 D|------------------------------------------------------|]
 A|------------------------------------------------------|]
 E|------------------------------------------------------|]

 e|-----------------------5-5--5---7-7-7-----------------|]
 B|--6-5-3-5-3-------------------------------------------|]
 G|-------------4-4-4-4/5--5--5-5/7-7-7------------------|]
 D|------------------------------------------------------|]
 A|------------------------------------------------------|]
 E|------------------------------------------------------|]

riff 3º q es como el primero, pero solo se hace una ves y el final cambia
 e|----------------------------------------------------|
 B|----------------------------------------------------|
 G|---------------------5-4--4------------------2-0-0--|
 D|-----3-3-----------------------3--3/5b-3-3/5--------|
 A|--3/5-------5.3.0p----------3/5---------------------|
 E|----------------------------------------------------|
fin del riff 3º para comenzar con la letra
  e|----------------|]
  B|----------------|]
  G|----------------|]
  D|-----3/5---0----|]
  A|-3/5------------|]
  E|----------------|]


LETRA con notas o Chords xD

D9    Fmaj7 C9 G6
Me salí
             D9   Fmaj7 C9 G6
fuera de contexto
D9     Fmaj7 C9 G6
Practicar
             D9    Fmaj7 C9 G6
no te hace perfecto
D9        Fmaj7      C9 G6
poner un disco eterno
 D9        Fmaj7 C9 G6
y moverme tornasol


CORO

A5        C9
Un espíritu
   A5
a veces seguro
       C9
otras veces incierto
A5            C9
quiero descubrir
      A5             C9
por que este deseo crece


Riff 1º con el final del riff y no se repite
 e|----------------------------------------------------|
 B|----------------------------------------------------|
 G|---------------------5-4--4------------------2-0-0--|
 D|-----3-3-----------------------3--3/5b-3-3/5--------|
 A|--3/5-------5.3.0p----------3/5---------------------|
 E|----------------------------------------------------|
fin del riff 1º
  e|---------------------------------------|]
  B|---------------------------------------|]
  G|---------------------------------------|]
  D|-----3---5-3p-5-3p-5-3p---5-3----------|]
  A|-3/5-------------------------5-3-3/5---|]
  E|---------------------------------------|]


Segundo Verso

D9         Fmaj7 C9 G6
Entre los dos
             D9    Fmaj7 C9 G6
pasa un meridiano
D9   Fmaj7  C9  G6
latitud   (latitud)
              D9  Fmaj7 C9 G6
de vidas paralelas
D9        Fmaj7      C9 G6
Abrir el sueno stereo
D9        Fmaj7  C9 G6
crear la dimensión

CORO

A5         C9
Sin disimular
    A5
me voy desnudando
     C9
con cada sonido
A5          C9
alta fidelidad
     A5             C9
cuando este deseo crece


intro con 1º,2º y 3º riff

riff 1º
 e|----------------------------------------------------|
 B|----------------------------------------------------|
 G|---------------------5-4--4------------------2-0-0--|
 D|-----3-3-----------------------3--3/5b-3-3/5--------|
 A|--3/5-------5.3.0p----------3/5---------------------|
 E|-------------------------------------------------x2-|
fin del riff 1º para ir al rif 2º
  e|---------------------------------------|]
  B|---------------------------------------|]
  G|---------------------------------------|]
  D|-----3---5-3p-5-3p-5-3p---5-3----------|]
  A|-3/5-------------------------5-3-3/5---|]
  E|---------------------------------------|]


riff 2º

 e|-----------------------5-5----------------------------|]
 B|--6-5-3-5-3-------------------------------------------|]
 G|-------------4-4-4-4/5--5--5-5-5/7-5-4-0--------------|]
 D|------------------------------------------------------|]
 A|------------------------------------------------------|]
 E|------------------------------------------------------|]

 e|-----------------------5-5--5---7-7-7-----------------|]
 B|--6-5-3-5-3-------------------------------------------|]
 G|-------------4-4-4-4/5--5--5-5/7-7-7------------------|]
 D|------------------------------------------------------|]
 A|------------------------------------------------------|]
 E|------------------------------------------------------|]

riff 3º q es como el primero, pero solo se hace una ves y el final cambia
 e|----------------------------------------------------|
 B|----------------------------------------------------|
 G|---------------------5-4--4------------------2-0-0--|
 D|-----3-3-----------------------3--3/5b-3-3/5--------|
 A|--3/5-------5.3.0p----------3/5---------------------|
 E|----------------------------------------------------|
fin del riff 3º para el ultimo coro
  e|----------------|]
  B|----------------|]
  G|----------------|]
  D|-----3/5---0----|]
  A|-3/5------------|]
  E|----------------|]

A5        C9
Un espíritu
   A5
a veces seguro
       C9
otras veces incierto
A5             C9
vengo a descubrir
      A5             C9
por que este deseo crece...

D9 - G6 - Fmaj7 - G6 (Fade Out estas son las notas para acompañar el fade out pero
la guitarra solista aria el intro del intro)

bueno eso es todo gracias por escuchar buena musica y pasarse por esta tab :D
Tap to rate this tab
# A B C D E F G H I J K L M N O P Q R S T U V W X Y Z