Song name
# A B C D E F G H I J K L M N O P Q R S T U V W X Y Z

Soda Stereo - Texturas tab

-------------------------------------------------------------------------------
                             TEXTURAS - Soda Stereo
-------------------------------------------------------------------------------


Tuning: Standard EADGBe

Solo es el intro porque he visto que muchos lo tienen mal o simplemente no lo ponen en 
sus tablaturas que consisten del puro acorde y nada mas. Los acordes en si son muy 
sencillos (G, D, A, Em, F#m, etc. estan en ingles)
e|--0-------0--------0-------------------------------------------------------------|
B|--3-------0--------1-------------------------------------------------------------|
G|--2-------2--------2-------------------------------------------------------------|
D|--4-------2--------3-------------------------------------------------------------|
A|--0-------0--------0-------------------------------------------------------------|
E|---------------------------------------------------------------------------------|
Tap to rate this tab
 
# A B C D E F G H I J K L M N O P Q R S T U V W X Y Z