Song name
# A B C D E F G H I J K L M N O P Q R S T U V W X Y Z

Soda Stereo - Te Hacen Falta Vitaminas tab

Si desean escuchar mejor las guitarras de fondo, pueden usar cancelación de bajos en la 
canción. En Windows 7 en adelante se incluye esta propiedad en el controlador de sonido, 
o bien pueden conectar unos audífonos a medias.
Te hacen falta vitaminas!!

Canción: Te hacen falta vitaminas
Banda: Soda Stereo
Álbum: Soda Stereo
Duración: 2:41

Tuning: Standard

Intro (Riff 1)

Guitarra 1                  x8
-9-9-9-9-9--10-10-10-10-10---|-9-9-9-9-9--10-10-10-10----|
-8-8-8-8-8--8--8--8--8--8----|-8-8-8-8-8--8--8--8--8-----|
-9-9-9-9-9--9--9--9--9--9----|-9-9-9-9-9--9--9--9--9-----|
-----------------------------|---------------------------|
-----------------------------|---------------------------|
-----------------------------|---------------------------|
                                         Última repetición

Guitarra 2
--------|---------------|--------------------------|------------------------|
--------|---------------|------0---------3---------|--0---------3-----------|
--2-----|--2--(2)~~~~---|--------2-----2---2-0--2--|----2-------0--2--0--2--|
--2-----|---------------|----2-------2-------------|-------2-2--2-----------|
--0-----|---------------|--0-------0---------------|------------------------|
--------|---------------|--------------------------|------------------------|


Versos (Riff 2)

Guitarra 1                   x4
--5-5-5-4/5-5-5-5-5-8-8-7-7-5--|
--5-5-5-4/5-5-5-5-5-8-8-7-7-5--|
--6-6-6-5/6-6-6-6-6-9-9-7-7-6--|
-------------------------------|
-------------------------------|
-------------------------------|

Guitarra 2                                                                 x2
-------------------------------------|--------------------------------------|
-------------------------------------|--------------------------------------|
-------------------------------------|-------------------------------5-6----|
-------4---------4-------------------|--------4---------4---7-7-7-7-7----7--|
---4-7---7---4-7---7\3-3-3-----------|----4-7---7---4-7---7\----------------|
-5---------5---------------3-3-3-5---|--5---------5-------------------------|


Coro

Guitarra 1
--7-7-7-7-7-5-55--------5-5-5-5-5--77--|7--777--8--8------------|
--7-7-7-7-7-7-77--------5-5-5-5-5--77--|7--777--8--8------------|
--7-7-7-7-7-7-77--------6-6-6-6-6--77--|7--777--9--9------------|
--9-9-9-9-9-7-77--5-55--7-7-7-7-7--99--|9--999--10-10-5-55-7----|
--9-9-9-9-9-5-55--5-55--7-7-7-7-7--99--|9--999--10-10-5-55-7----|
--7-7-7-7-7-------3-33--5-5-5-5-5--77--|7--777--8--8--3-33-5----|

Guitarra 2
--7--777--------------5-5-----5--|--7--7-10-7-8------------5\---|
--7--777--------------5-5-5-8-8--|--7--7-7--7-8------------5\---|
--7--777--7-77--------6-------6--|--7--7-7--7-9------------6\---|
--9--999--7-77--5-55--7----------|--9--9-9--9-10-1010-5-55-7\---|
--9--999--5-55--5-55--7----------|--9--9-9--9-10-1010-5-55-7\---|
--7--777--------3-33--5----------|--7--7-7--7-8--8-8--3-33-5\---|

*Para el segundo coro, hacer un slide up desde el cejillo A antes de pasar al puente.


Puente

Guitarra 1                                x2
---5---5\3-33--3-33--|---------------------|
---5---5\3-33--3-33--|--3-3-33/3-333-3-33--|
---6---6\4-44--4-44--|--2-2-22/2-222-2-22--|
---------------------|--4-4-44/4-444-4-44--|
---------------------|---------------------|
---------------------|---------------------|

--77----8-8-8----333----555----------------|
--77----8-8-8----333----777----9\----------|
--77----9-9-9----444----777----9\----------|
--99----101010---555----777----9\----------|
--99----101010---555----555----7\----------|
--77----8-8-8----333-----------------------|

Guitarra 2                                                   x4
-------------------------------|------------------------------|
-------------------------------|------------------------------|
--9-9-9-6-6---7--7-7-7-4-4-----|------------------------------|
------------7--------------5-7-|-7-7-7-4-4------------6-6-9-9-|
-------------------------------|-----------5-7--7-7-7---------|
-------------------------------|------------------------------|

-------------3----5----------------|
-------------3----7----9\----------|
-------------4----7----9\----------|
--9----10----5----7----9\----------|
--9----10----5----5----7\whammy----|
--7----8-----3---------------------|


Solo

Guitarra de fondo: Riff 2, guitarra 1
Guitarra Solista
--21--(x22)\-----------------|------------------|
--20--(x22)\-----------------|-8---7-4-5--------|
-----------------------------|-9---7-5-6-7-5----|
-----------------------------|---9-------7-5-7--|
-----------------------------|---------------7--|
-----------------------------|------------------|
*Con un ligero bending de 1/4-

-------------------------------|-----------------|
-5-5-55-5-5-5-5-555-7b-7-5-----|-----------------|
-5-5-55-5-5-5-5-555-7b-7-5-7-7-|-------5~~~~-----|
-5-5-55-5-5-5-5-555-7b-7-5-7-7-|----5h7----------|
-------------------------------|-5h7-------------|
-------------------------------|-----------------|

-------------------------------------------------|
--4-5-4-5-4-------4-5-6-7-7~~6-7~-7-6-7~-6-7-----|
------------5-4-5--------------------------------|
-------------------------------------------------|
-------------------------------------------------|
-------------------------------------------------|

---------15-14-13-12------------------|------12--10--9--7--------------|
-------13-----------13-15-12-13-------|----------------------5~--------|
--12h14------------------------12-14--|-10/12--11--9---7--\5-5~whammy--|
--------------------------------------|--------------------------------|
--------------------------------------|--------------------------------|
--------------------------------------|--------------------------------|

Final

---------------------||
---------------------||
----------7-7--------||
------9-9-5-5--------||
--7-7-7-7------------||
--5-5----------------||


Acordes para la canción

Intro   Am
Versos  A C Bm
Coros   Bm D G A C
Puente  A G D E
Tap to rate this tab
# A B C D E F G H I J K L M N O P Q R S T U V W X Y Z