Song name
# A B C D E F G H I J K L M N O P Q R S T U V W X Y Z

Soda Stereo - Danza Rota tab

Banda: Soda Stereo
Cancion: Danza Rota
transcrito por:Carlos ramirez
Afinacion:EADGBe



INTRO:
     Am  G  D   G Cadd9  G  Bm7 E  Am9  G  D  G  Cadd9  G  Bm7 Esus
e|----5--3--2---3---3----3---2--0----7--3--2--3----3----3---2--0-------|
B|----5--3--3---3---3----3---3--0----5--3--3--3----3----3---3--0-------|
G|----5--4--2---0---0----0---2--1----5--0--2--0----0----0---2--2-------|
D|----7--5--0---0---2----0---4--2----7--0--0--0----2----0---4--2-------|
A|----7--5------2---3----2---2--2----7--2-----2----3----2---2--2-------|
E|----5--3------3--------3------0----5--3-----3---------3------0-------|

  (harmonics)
e|---12+----------------------------------------------------------------|
B|---12+----------------------------------------------------------------|
G|----------------------------7/9---------------------------------------|
D|-------------4---0-2-4--7/9-------------------------------------------|
A|-----------2---2------------------------------------------------------|
E|--------0-------------------------------------------------------------|

INTRO Y CORO:
  Am7            D            Csus2           Bm7  E
e|--------0-------------0--------------3-------2---4----|
B|------3-----3-----3-------3------3-------3---3---5----|
G|----5-----5-----5---5---5------5---5---5-----2---4----| (2)
D|---------------------------------------------4---6----|
A|--------------5--------------3---------------2---7----|
E|-5----------------------------------------------------|

   Am7   G D   G  C   Bm
e|-/12--10-10--7--8---7----|
B|-/13--12-10--8--8---7----|
G|-/12--12-11--7--9---7----| (2)
D|-/14--12-12--9--10--9----|
A|--12--10-12-----10--9----|
E|----------------8---7----|


VERSO:
  Dm7           G7                   Cm7                 F7
e|-3-------------3--------------------1-------------------1---------------|
B|-6-------------6--------------------4-------------------4---------------|
G|-5-------------4--------------------3-------------------2---------------|
D|------------------------------------------------------------------------|
A|------------------------------------------------------------------------|
E|------------------------------------------------------------------------|
   las luces me queman la cara no te puedo hallar como salir de este castigo
   soy prisionero             aqui estoy      resquebrajandome
          de un ritmo cruel

   Dm7                        G7
e|-----------5-6--7-----------------5-6-7--------------|
B|--------6----------6---6-------6---------6---6-------|
G|---5--5--------------5------4-4------------4---------|
D|-----------------------------------------------------|
A|-----------------------------------------------------|
E|-----------------------------------------------------|
      hay anarquia  en  mis   movimientos

        Cm7                   F7
e|-----------3-4-5------------------3-4-5--------------------------|
B|---------4--------4---4--------4--------4---4--------------------|
G|----3--3------------3-----2-2-------------2----------------------|
D|-----------------------------------------------------------------|
A|-----------------------------------------------------------------|
E|-----------------------------------------------------------------|
  y al mismo tiempo         alguien los controla

      Dm7                      G7
e|-----------5-6--7-----------------5-6-7--------------|
B|--------6----------6---6-------6---------6---6-------|
G|---5--5--------------5------4-4------------4---------|
D|-----------------------------------------------------|
A|-----------------------------------------------------|
E|-----------------------------------------------------|
        se van cayendo     mis ligamentos

            Cm7                  F7
e|-----------3-4-5-------------------------------------------------|
B|---------4--------4---4---------4---4----------------------------|
G|----3--3------------3-----2-2-2---2------------------------------|
D|-----------------------------------------------------------------|
A|-----------------------------------------------------------------|
E|-----------------------------------------------------------------|
       yo no puedo ser libre sin vos       dame


CORO: (se toca el intro y coro que esta arriba durante esta parte)

    Am7        D            Cadd9        Bm7    E
     dame una pista algun rastro para hallarte
    Am7                    D            Cadd9        Bm7   E
      estoy bailando una danza rota quisiera escaparme        (repetir)


   verso, coro


ANTES DEL SOLO:
                G          F           G      Cm7
e|--------------3-3-3----3-1-1-1-----1-3-5-5---3-------------|
B|--------------3-3-3----3-1-1-1-----1-3-3-3---4-------------|
G|--------------4-4-4----4-2-2-2-----2-4-4-4---3-------------|
D|--------------5-5-5----5-3-3-3-----3-5-5-5---5-------------|
A|---------------------------------------------3-------------|
E|-----------------------------------------------------------|
  danza rota

SOLO:( con slide)

e|---10--13\10--------------------------------15\------\15--------------|
B|---10--13\10-------------------12-12/---15------/15-------------------|
G|------------------10-10--10-10----------------------------------------|
D|----------------12-----12---------------------------------------------|
A|----------------------------------------------------------------------|
E|----------------------------------------------------------------------|

e|-----15-13-12--8----8-12-13-15/---------------|
B|-/15-------------8----------------------------|
G|----------------------------------------------|
D|----------------------------------------------|
A|----------------------------------------------|
E|----------------------------------------------|

FINAL:
  Dm7                     G                     Fsus               G
e|-----------0-----------------------0--------------------8--------7--|
B|--------8---------------------8---------8----------8---------8---8--|
G|-----10--------------------10---10--10---------10----10--10------7--|
D|-----------------------------------------------------------------9--|
A|-----------------------10--------------------8-------------------10-|
E|-10-----------------------------------------------------------------|
      dame                                     uh uh                (2)
      dame     una      pista           algun rastro       para  hallarte
      estoy bailando una danza rota       quisiera       escaparme
Tap to rate this tab
# A B C D E F G H I J K L M N O P Q R S T U V W X Y Z