Song name
# A B C D E F G H I J K L M N O P Q R S T U V W X Y Z

Soda Stereo - Sobredosis De Tv tab

Artista: Soda Stereo
cancion: Sobredosis de Tv
Transcrito por: Carlos ramirez
Afinacion: EADGBe


INTRO:
e|----2---------------0-----------2--------------------------|
B|----2---------------0-----------2-----------0-----5--4--0--|
G|----3---------------2-----------3--------2----2------------| repetir
D|----4---------------2-----------4-----4--------------------|
A|----4---------------2-----------4--------------------------|
E|----2---------------0-----------2--------------------------|

VERSO:
e|----2---------------0---2--------------------------------------------|
B|----2---------------0---2------------------------------0-----5--4--0-|
G|----3---------------2---3---------------------------2----2-----------|
D|----4---------------2---4------------------------4-------------------|
A|----4---------------2---4--------------------------------------------|
E|----2---------------0---2--------------------------------------------|
   estoy desesperado     soy tan vulnerable a su amor
   ella ya se ha ido   un hueco en mi      habitacion
  mis manos siguen frias he perdido la     fascinacion
 sus brazos son escombros detienen      mi respiracion


  CORO:
e|-----4-----------6----7------4------------6-----0-----------------|
B|-----5-----------5----5------5------------5-----0-----------------|
G|-----6-----------6----6------6------------6-----2-----------------|
D|-----6-----------4----7------6------------4-----2-----------------|
A|------------------------------------------------0-----------------|
E|------------------------------------------------------------------|
   y acuestate levantate   no puedo seguir asi  oh no
  y  apagalo   enciendelo  no puedo seguir asi


e|------0-----|------------------------|
B|------0-----|-----0-----5--4--0------|
G|------2-----|--2----2----------------| (4)
D|------2-----|------------------------|
A|------0-----|------------------------|
E|------x-----|------------------------|
  ...oh noooo

    verso, coro..


SOLO:
e|--------------------------------------|
B|--------------------------------------|
G|--------------------------------------|(4)
D|--------------------------------------|
A|--------------------------------------|
E|----2-2---2--2--0---2--2---2--2-------|

   coro..


 FINAL:
e|---------0--------0---------0--------0------------0---------0--------|
B|---------------------------------------------------------------------|
G|-------4---4----4--4------6---6----6---6--------7---7-----7---7------|
D|-----6--------6---------7--------7------------9---------9------------|
A|---------------------------------------------------------------------|
E|---------------------------------------------------------------------|
   no puedo            seguir       marginandome ......etc.
Tap to rate this tab
# A B C D E F G H I J K L M N O P Q R S T U V W X Y Z