Song name
# A B C D E F G H I J K L M N O P Q R S T U V W X Y Z

Soda Stereo - Te Para Tres Live tab

Banda: Soda Stereo (en vivo)
Cancion: Te para Tres
Transcrito por: Carlos Ramirez
Afinacion: EADGBe

VERSO:
      D/F#             Em9      D/F#          Em9
e|-----2----------------2--------2-------------2-------------------|
B|-----3----------------3--------3-------------3-------------------|
G|-----2----------------0--------2-------------0-------------------|
D|-----0----------------2--------0-------------2-------------------|
A|-----x----------------2--------x-------------2-------------------|
E|-----2----------------0--------2-------------0-------------------|
  las tazas sobre el mantel  la lluvia derramada

       G              A7              Em9
e|-----3---------------3---------------2--------------------------|
B|-----3---------------2---------------3--------------------------|
G|-----0---------------2---------------0--------------------------|
D|-----0---------------2---------------2--------------------------|
A|-----2---------------0---------------2--------------------------|
E|-----3-------------------------------0--------------------------|
   un poco de miel un poco de miel  no basta


verso..


CORO:
            D   Em9 D  Em9  G   A7
e|----------2---2---2---2---3---3----------------------------------|
B|----------3---3---3---3---3---2----------------------------------|
G|----------2---0---2---0---0---2----------------------------------|
D|----------0---2---0---2---0---2----------------------------------|
A|--------------2-------2---2---0----------------------------------|
E|--------------0-------0---3--------------------------------------|
  te para tres

 verso coro..

este coro es mas especifico,

CORO:
               D           Em9         D
e|-------------2---2---2----2--2---2---2--2---2--2---------------|
B|-------------3---3---3----3--3---3---3--3---3--3---------------|
G|-------------2---2---2----0--0---0---2--2---2--2---------------|
D|-------------0---0---0----2--2---2---0--0---0--0---------------|
A|-----------------0h2-0----2--0h2-0h2----0h2-0--2---------------|
E|------------------------0----0---0-----------------------------|
     te para tres

    Em9           G            A7
e|---2--2---2--2--3--3---3--3---3---------------------------------|
B|---3--3---3--3--3--3---3--3---2---------------------------------|
G|---0--0---0--0--0--0---0--0---2---------------------------------|
D|---2--2---0--0--0--0---0--0---2---------------------------------|
A|---2--0h2----2--2--0h2----2---0---------------------------------|
E|-0--------------3--3--------------------------------------------|
Tap to rate this tab
 
# A B C D E F G H I J K L M N O P Q R S T U V W X Y Z