Song name
# A B C D E F G H I J K L M N O P Q R S T U V W X Y Z

Soda Stereo - El Rito Live tab

artista: soda stereo
cancion: el rito (en vivo del ultimo concierto)
transcrito por: carlos ramirez
afinacion: EADGBe

INTRO:
e|----3-----3----3----3-----3---3----3---3----3----3----3----3-----------|
B|--6--6--6-----6-6--6-----6-6-6----6-6-6----6-6--6----6-6--6------------|
G|-5-----5-----5----5-----5---4----4---4----4----6----6----6-------------|
D|-----------------------------------------------------------------------|
A|-----------------------------------------------------------------------|
E|-----------------------------------------------------------------------|


e|------3----3---3---3-----|
B|----6--6--6---6-6-6------|
G|---6-----5---5---5-------|  2x
D|-------------------------|
A|-------------------------|
E|-------------------------|


VERSO:
e|-6----------------------------------------------------------------------|
B|-6----------------------------------------------------------------------|
G|-8----------------------------------------------------------------------|
D|-8----------------------------------------------------------------------|
A|-6----------------------------------------------------------------------|
E|-x----------------------------------------------------------------------|
                  soy un profanador          estoy desafiando al tiempo
    el cielo entiende que mi obsesion       esta llegando a un limite


e|------8-----------------------------------------------------------------|
B|------8-----------------------------------------------------------------|
G|-----10-----------------------------------------------------------------|
D|-----10-----------------------------------------------------------------|
A|------8-----------------------------------------------------------------|
E|------x-----------------------------------------------------------------|
                 ya ves mi transgresion     es procurar tenerte
            y el desierto al menos hoy     no parece no parece tan..


CORO:(la guitarra toca la introduccion)

   Dm7                        G         Bbm7                       F
   sueles encontrarme en cualquier lugar  y ya lo sabes nada es casualidad
 Dm7                          G    Bbm7                              F
   tu misteriosa forma me lastimara  pero a cada segundo estare mas cerca

 mas mas..


 (I)
e|----------------------------8-8-8-8-------------------------------------|
B|----------------------3-----8-8-8-8-----------------------5---6--5--5---|
G|--------------------5------------------------------------5--5---5---5---|
D|--------7--------7------6--------------------7-------7--------------5---|
A|--5-7-8----5-7-8-----------------------5-7-8----5-7-8-------------------|
E|------------------------------------------------------------------------|

 verso,coro...

 (II)
e|---5--3--5---3--5--8-11-------4-----------------------------------------|
B|---5--3--5---3--5--8-10-------3-----------------------------------------|
G|---5--3--5---3--5----10-------3-----------------------------------------|
D|------------------------------------------------------------------------|
A|------------------------------------------------------------------------|
E|------------------------------------------------------------------------|
                           desafiando al rito

e|---5--3--5---3--5--8-11-------4-----------------------------------------|
B|---5--3--5---3--5--8-10-------3-----------------------------------------|
G|---5--3--5---3--5----10-------3-----------------------------------------|
D|------------------------------------------------------------------------|
A|------------------------------------------------------------------------|
E|------------------------------------------------------------------------|
                          destruyendo mitos

 (I),instrumental(las mismas notas del verso) (II)....


e|---------------------------------------------------------|
B|-------------------------------------6-4-3-4-3-----------|
G|---------0-5--------0-5-5--3-2-3-2-------------5-3-5-----| (repetir
D|-----2-3--------2-3----------------3---------------------| varias veces)
A|---3----------3------------------------------------------|
E|---------------------------------------------------------|

final:
e|-----------------------------------------------------1----------|
B|-------------------------------------6-4-3-4-3-------1----------|
G|---------0-5--------0-5-5--3-2-3-2-------------5-3---2----------|
D|-----2-3--------2-3----------------3-----------------3----------|
A|---3----------3--------------------------------------3----------|
E|-----------------------------------------------------1----------|
Tap to rate this tab
 
# A B C D E F G H I J K L M N O P Q R S T U V W X Y Z