Song name
# A B C D E F G H I J K L M N O P Q R S T U V W X Y Z

Soda Stereo - La Cuidad De La Furia tab

Acá va el intro
 e|--3------|
 B|--3------|
 G|--0------|
 D|--2------|
 A|--3------|
 E|---------|

 e|--3------|
 B|--3------|
 G|--0------|
 D|--0------|
 A|--2------|
 E|--3------|

        X5       X4        X1
e|-----5---|-----7--|-----10-----9--|
B|---8-----|---8----|---8------8----|
G|-9-------|-9------|-9------9------|
D|---------|--------|---------------|
A|---------|--------|---------------|
E|---------|--------|---------------|

     X5        X4          X1            X5
e|-----5---|-----7--|-----10-----9--|-----10--
B|---8-----|---8----|---8------8----|---8-----
G|-9-------|-9------|-9------9------|-9-------
D|---------|--------|---------------|---------
A|---------|--------|---------------|---------
E|---------|--------|---------------|---------

Riff1
    Em7   G     A
e|-----------------|
B|----3----3-----2-|
G|---0----0-----2--|  X2
D|--2--------------|
A|-------------0---|
E|-0-----3---------|

     G           A
e|-----2--2-3-2-0--|
B|----3--3-----3-2-|
G|---0-------------|  X2 Este riff se repite durante casi toda la canción
D|-----------------|   (estrofas)
A|-----------------|
E|--3--------------|

Riff2
e|--7-7-7--7777----|
B|--7-7-7--7777----| En los primeros dos rasgueos se apaga el sonido y en
G|--7-7-7--7777----| los últimos cuatro, se hacen muy rapido
D|--7-7-7--7777----|
A|--9-9-9--9999----|
E|--7-7-7--7777----|

e|--7-7-x-7-xx-7---|
B|--7-7-x-7-xx-7---|
G|--7-7-x-9-xx-9---|
D|--9-9-x-9-xx-9---|
A|--7-7-x-7-xx-7---|
E|-----------------|

Riff3

e|--5---3---2-----|
B|--------------3-|
G|----------------| x2
D|----------------|
A|----------------|
E|----------------|

e|--5---3---2-----|
B|--------------5-|
G|----------------| x2
D|----------------|
A|----------------|
E|----------------|


Intro y riff1

Me verás volar
por la ciudad de la furia
donde nadie sabe de mí
y yo soy parte de todos.

 Em7           G       A            Em7  G   A
Nada cambiará con un aviso de curva.
G                     A
En sus caras veo el temor,
G                    A
ya no hay fábulas en la ciudad de la furia.

Riff2 X3

Em7            G         A           Em7   G   A
Me verás caer como un ave de presa,
G                 A
me verás caer sobre terrazas desiertas.
Te desnudaré por las calles azules,
me refugiaré antes que todos despierten.


Bm     D       G      Bm     D
Me dejarás dormir al amanecer
G          A
entre tus piernas
G          A      F#m7
entre tus piernas       (sobre estos acordes se hace el riff3)


Sabrás ocultarme bien y desaparecer
entre la niebla
entre la niebla


(se repite Intro)
Un hombre alado extraña la tierra.

Riff1

Me verás volar
por la ciudad de la furia
donde nadie sabe de mí
y yo soy parte de todos.

Riff1

Con la luz del sol se derriten mis alas
sólo encuentro en la oscuridad lo que me une
con la ciudad de la furia.


Me verás caer como una flecha salvaje
me verás caer entre vuelos fugaces.

Buenos Aires se ve tan susceptible
ese destino de furia
es lo que en sus caras persiste.

Me dejarás...

Sabrás ocultarme...

Un hombre alado prefiere la noche.
Tap to rate this tab
# A B C D E F G H I J K L M N O P Q R S T U V W X Y Z