Song name
# A B C D E F G H I J K L M N O P Q R S T U V W X Y Z

Sodom - Jesus Screamer tab

Tuning E A D G B E


Main riff [play 10 times]
|-------------------|
|-------------------|
|-------------------|
|-----5-4--7---8----|
|--4--3-2--5---6----|
|--2----------------%


Chorus
|-----------------------------------|
|-----------------------------------|
|-----------------------------------|
|-----------------------------------|
|-2---4---2---4---2---4---2---4-----|
|-0---2---0---2---0---2---0---2---s-%


[repeat main riff 8 times]
[repeat chorus]
[repeat main riff 10 times]
[repeat chorus]
[repeat main riff 8 times]

Tap to rate this tab
 
# A B C D E F G H I J K L M N O P Q R S T U V W X Y Z